Cherche tablature Monkey me - Mylène Farmer


nouveau message Répondre
Recherche

sophie-th

2 photos
#
Bonjour à tous !

J'ai besoin de votre aide , j'ai acheté l'album de Mylène Farmer et il y a une chanson que j'aimerais beaucoup apprendre à jouer , il s'agit de "Monkey me " .
Vu que l'album vient de sortir , je ne trouve aucune tablature sur le net ...

Je pense que les accord doivent être plutôt simples à trouver mais .. je n'ai pas encore assez d'expérience pour y arriver toute seule :/

Merci d'avance !



#
Bonjour, moi aussi je suis intéressé. Voir ci-dessous
G

#
un ami bien meilleur musicien que moi m'a aidé sur ce coup là :P en fait j'avais presque tout faux :s
Pour les couplets la progression c'est C#5 B5 A5 F#5 B5
alterné avec C#5 G#5 A5 F#5 B5
Pour les refrains c'est
Em B C Am D
Puis le dernier refrain reprend la même progession une tierce mineure au dessus
G D D# C F

sophie-th

2 photos
#
Merci beaucoup ! Je vais tester ca de suite !

sophie-th

2 photos
#
Au passage si tu sais en avoir d'autres de l'album comme " j'ai essayé de vivre " par exemple ce serait génial :)

sophie-th

2 photos
#
Après avoir testé , j'ai un petit soucis pour le refrain le C Am D me semblent correct mais le B sonne un peu bizarre .. bon après je suis pas pro donc sans doute que c'est moi qui le joue mal ...

rankxerox

Hyper Tabber
Petit Downloader
1 message
#
Hello

Monkey Me - Mylene Farmer


Intro


|--------0-----------0-----------|--------0-----------0-----------|
|----4-----------4-----------4---|----4-----------4-----------4---|
|6-----------6-----------6-------|4-----------4-----------4-------|
|--------------------------------|--------------------------------|
|4-------------------------------|2-------------------------------|
|--------------------------------|--------------------------------|


|--------0-----------0-----------|--------2---0-------------------|
|----4-----------4-----------4---|----0-----------4---2---4---0---|
|6-----------6-----------6-------|2-------------------------------|
|--------------------------------|--------------------------------|
|0-------------------------------|----------------2---------------|
|--------------------------------|2-------------------------------|



C#m B A F# B
C#m Ab A F# B
C#m Ab A F# B
C#m Ab A F# B

Em D C Am D
Em Bm C Am D
Em Bm C Am D
Em Bm C Am D

Gm F D# C F
Gm D D# C F
Gm D D# C F
Gm D D# C F

TablEdited by RankXerox 2012

Si je puis me permettre ...
Bon dimanche

RX
#
pour ceux que ça intéresse ;les premiers accords de Quand:
Assez répétitif :
1 er couplet :

Labm-B-E-Fa#
on tourne tous le temps sur ses 4 accords même pendant le refrain

pont : Gm-Bb-Eb-Fmaj
voilà n'oubliez pas de remonter au refrain :
ensuite on change de tonalité ,pour le dernier refrain : Bm-G-D-F#m 6dim

n'hésitez pas à me dire si ça le fait ou pas? wink

Merci à Mylène et Laurent pour ce superbe album!

sophie-th

2 photos
#
Merci beaucoup a vous 2 !

#
JE TE DIS TOUT structure principale du thème : f#C#D-f#ABC#D-DAB f#C#D ( a joué en accord)
Bmadd9 : brkrepeatstart note-8 note-8

B-A-G X 2 fois
Refrain :
Bm-A-G Em-F#-Bm
Bm-A-G-Em-F#Bm
Bm-A-G Em-F#-Bm
Bm-A-G-Em-F#-Bm
pont
Dm-Am-Gm-Dm
Dm-Am-Gm-Dm


nouveau message Répondre Recherche



Autre liens sur le site pour Mylene Farmer : Discographie Mylene Farmer - Tee Shirt Mylene Farmer - Poster Mylene Farmer
plan Plan du Forum Tablatures||Tags : FARMER, farmer, mylene, MYLENE, monkey, album, tablature, aimerais, jouer