Juste une photo de toi


nouveau message Répondre
Recherche

#
Bonjour tout le monde,
Est ce que quelqu'un aurais les accords et la rythmique de juste une photo de toi de m pokora svp ??
Merci d'avance ! wink



rankxerox

Hyper Tabber
Petit Downloader
1 message
#
Salut

Une petite tab :

CAPO IV
|------------------------2-------|--------------------------------|
|------------2---3---2-----------|--------0---2---3---2---0-------|
|--------4-----------------------|--------------------------------|
|----4---------------------------|----0---------------------------|
|2-------------------------------|--------------------------------|
|--------------------------------|3-------------------------------|

|--------------------2-----------|----------------0---------------|
|------------2---3-------2-------|--------2---3-------3---2---3---|
|----2---4-----------------------|----2---------------------------|
|0-------------------------------|--------------------------------|
|--------------------------------|0-------------------------------|
|--------------------------------|--------------------------------|


Bm G D A... en boucle ... et Capo 4ème case

chanteur Bon Dimanche chanteur

RX
#
Merci beaucoup !! smile Et pour la rytmique des accords ?? maitre


nouveau message Répondre Recherche


plan Plan du Forum Tablatures||Tags : juste, toi, photo, quelqu, tout, monde, bonjour, aurais, les