Last night a Dj save my life !!


nouveau message Répondre
Recherche

#
icon_cheesygrin Bonjour je recherche depuis tellement longtemps la tab enfin surtout le riff de la gratte de la chanson last night a dj save my life !! La version funky !! Si quelqu'un pouvait m aider oula la reconaissance !! love Allez koikil soit bonne gratte smiley-guitar



#
la t vraiment mal barré(hahaha) parce qu'un truc aussi vieu que ça...
bonne chance dans ta quête

#
voila pour toi :


Bass:
G------------------------------------------
D------------------------------------------
A----------------------2----2-4------------
E-----2-2-2---2---2------------------------


Guitar:
e-----5-5-5---7-----5--5--5-5--5-5-5-------
B-----5-5-5---7-----5--5--5-5--5-5-5-------
G-----6-6-6---7-----6--6--6-6--6-6-6-------
D------------------------------------------
A------------------------------------------
E------------------------------------------
chords:
A Bm/Gmaj7





**Chorus**


Bass:
G------------------------------------------
D------------------------------------------
A---------------------------2----0---------
E-----2---2---0---0--(0h1h)2---------------
The brackets indicate the E hammered-on to F#
is not always there, sometimes it's just F#.
Pause on the last B slightly before going to
the A, let the A ring.


Sometimes with this fill on the end:
G------------------------------------------
D---------4------------------------------
A-----2h4----------------------------------
E------------------------------------------


e-----5--5---4---2----0----2---0-2---------
B-----5--5---4---2----0----2---0-2---------
G-----6--6---4---2----1----2---1-2---------
D------------------------------------------
A------------------------------------------
E------------------------------------------
chords:
w x y z y z y

w= A
x= G#m/Emaj7
y= F#m/Dmaj7
z= E



**Fill**
e-----4-55-4--5---4--5--4-4----------------
B-----4-55-4--5---4--5--4-4----------------
G-----4-66-4--6---4--6--4-4----------------
D------------------------------------------
A------------------------------------------
E------------------------------------------




"There's not a problem that I can't fix
Cos I can do it in the mix"


nouveau message Répondre Recherche


plan Plan du Forum Tablatures||Tags : gratte, last, life, save, night, surtout, enfin, tab, tellement