Recherche d'un tablature d'intro de ORELSAN.


nouveau message Répondre
Recherche

#
Bonjour je cherche depuis se matin la tablature qui me parait simple de Orelsan, La morale .
Voici un lien de la chanson : http://www.youtube.com/watch?v=Q5qliBvAwts

Elle me parait pas trop compliquer mais je n'avance vraiment pas et sur ma guitare et en cherchant des info sur Gogole endesaccord3 !

Si quelqu'un aurais des info sur cette intro, la tablature, un debut ou quoi que se soit sa serait gentil de m'aider :) !

Ecouter l'intro elle est vraiment magnifique je trouve a la guitare !

Merci d'avance, Bonne journée.



#
Pareil pour moi, je n'arrive pas a la trouver un ptit coup de pouce s'il vous plait icon_cry

#
J'ai trouvé ça tout seul, je trouve que sa passe meme si c'est pas exactement ça . Voila, ouvert a toutes critiques ^^ .

Capo : 1ère Case
E||--0--------------0----|--4----4----0---------|-------0--------------|
B||----------------------|----------------------|----------------------|
G||------------2---------|----------------------|--2--------------2----|
D||--2----2--------------|--2---------2----2----|------------2---------|
A||----------------------|----------------------|----------------------|
E||----------------------|----------------------|----------------------|


o

--0--------------0----|--0--------------0----|--4----4----0---------|
----------------------|----------------------|----------------------|
------------2---------|------------2---------|----------------------|
-------2--------------|--2----2--------------|--2---------2----2----|
----------------------|----------------------|----------------------|
----------------------|----------------------|----------------------|



-------0--------------|--0--------------0----|--0--------------0----|
----------------------|----------------------|----------------------|
--2--------------2----|------------2---------|------------4---------|
------------2---------|-------2--------------|--4----4--------------|
----------------------|----------------------|----------------------|
----------------------|----------------------|----------------------|



--4----4----0---------|-------0--------------|--0--------------0----|
----------------------|----------------------|----------------------|
----------------------|--4--------------4----|------------4---------|
--4---------4----4----|------------4---------|-------4--------------|
----------------------|----------------------|----------------------|
----------------------|----------------------|----------------------|



------------0----|-------|--4--------------4----|--6----6----7---------|
-----------------|-------|----------------------|----------------------|
-------4---------|-------|------------4---------|----------------------|
--4--------------|-------|--4----4--------------|--4---------4----4----|
-----------------|-------|----------------------|----------------------|
-----------------|-------|----------------------|----------------------|


-------7--------------|--7--------------7----|-------|-------|
----------------------|----------------------|-------|-------|
--4--------------4----|------------4---------|-------|-------|
------------4---------|-------4--------------|-------|-------|
----------------------|----------------------|-------|-------|
----------------------|----------------------|-------|-------|



--6----6----5----5----|-------|--0----4----4----2----|------------2---------|
----------------------|-------|----------------------|----------------------|
----------------------|-------|----------------------|-------2--------------|
--8---------8---------|-------|--0----4---------2----|--2--------------2----|
----------------------|-------|----------------------|----------------------|
----------------------|-------|----------------------|----------------------|


-------2--------------|--2----|--4----4----0---------|-------0--------------|
----------------------|-------|----------------------|----------------------|
--2--------------2----|-------|----------------------|--2--------------2----|
------------2---------|-------|--2---------2----2----|------------2---------|
----------------------|-------|----------------------|----------------------|
----------------------|-------|----------------------|----------------------|



--0--------------0----||
----------------------||
------------2---------||
-------2--------------||
----------------------||
----------------------||

chipie.foxtrot

Modérateur
#
j'ai retiré les indications de temps de la tablature !

voir c'est entendre,c'est toucher,c'est retirer le voile qui sépare l'essentiel de l'apparent (Tahar ben jelloun)....

je joue toujours de la guitare à six schtroumpfs !
#
Merci j'essaye sa de suite icon_cheesygrin !

#
Oui je l'ai écrite vite fait avec guitar pro j'ai pas pas fait gaffes aux mesures et tout . Dites moi ce que vous en pensez wink

#
http://www.911tabs.com/link/?7794184 lien de la tablature bonne chance mec smile_cool smiley-guitar

#
J'ai essayé de faire l'intro à l'oreille et je suis arrivé à ce résultat.

CAPO en case 3.

E||-----------2--------------------------------|
B||--3------3-3------3-3------3------3------3--|
G||--0----0--------0---0----0------0------0----|
D||-----0--------0--------2------2------2------|
A||--------------------------------------------|
E||--------------------------------------------|


... et ainsi de suite.
J'espère t'avoir aidé ! wink


nouveau message Répondre Recherche


A

Autre liens sur le site pour A : Discographie A - Tee Shirt A - Poster A
plan Plan du Forum Tablatures||Tags : intro, tablature, parait, des, elle, guitare, info, orelsan, avance