Passage des cyclones les 20s


nouveau message Répondre
Recherche

#
Bonjour,

j'ai étais voir Mr Calogero en concert en milieu d'année et il m'a donné gout à la guitare.

Je cherche depuis un bon moment la tablature de cette musique que j'ai trouvé mais pas les 20 seconde de ce lien
http://www.dailymotion.com/video/xcmwpk_calogero-passage-des-cyclones-le-pa_musi...

juste avant de mettre le capot.

Si une personne pourrait m'aider s'il vous plait.

Merci beaucoup et bonne fin de journée à vous
Fred



pascal17

Petit causeur
Jeune tabber
Petit Downloader
11 photos
Membre VIP
45 messages
Modérateur
#
hum il mets pas de capo...

Par contre, c'est sympa, il utilise un looper,
il fait ces 20 premieres secondes en note à note,

puis au moment des couplets il arrete le looper
il fait que du strumming,

il remet le looper pour les refrains, tout en jouant par dessus.
sympa.

#
Merci

sisi je te confirme il place un capot

Mais j'arrive pas à reconnaître les notes qu'il joue, j'ai essayé encore hier soir mais pas trouvé.

Je continu à chercher lol

Merci de ta réponse.
Fred

pascal17

Petit causeur
Jeune tabber
Petit Downloader
11 photos
Membre VIP
45 messages
Modérateur
#
sur la premiere video, le capo est deja en place au depart:
http://www.dailymotion.com/video/xcmwpk_calogero-passage-des-cyclones-le-pa_musi...
ce qui change rien pour le note à note...

sur la 2eme, il avait du l'oublier, lol icon_cheesygrin
d'ou la panique, et le roadie qui lui apporte sur scene.

perso, j'etais surtout interrressé par le travail au looper,
honnetement je suis pas fan du morceau


je suis privé de bras droit depuis 3 mois et demi, et pour 15 jours encore,
je ne peux donc pas te chopper les notes.
un collegue s'y colle?

#
Voila pour toi wink
E||-------------------------------|------------------------------|--13--11-9--------------------9---|
B||-------------------------------|------------------------------|------------13--11--13--11-13-----|
G||--10--8-6------------------6---|--8--6------------6-------6---|----------------------------------|
D||-----------10--8--10--8-10-----|-------10--8--10-----8-10-----|----------------------------------|
A||-------------------------------|------------------------------|----------------------------------|
E||-------------------------------|------------------------------|----------------------------------|


E S E E E E S S E.
--11--9-------------9--------9---|-----||
--------13--11--13-----11-13-----|-----||
---------------------------------|-----||
---------------------------------|-----||
---------------------------------|-----||
---------------------------------|-----||

La tab ne tiens pas compte du capo case 1, je peux te la décaler si tu le souhaites mais la j'en vois pas trop l'utilité icon_cheesygrin
Grâce au looper il superpose les deux parties .

#
Merci beaucoup, je regarderai ce soir encore merci de l'aide.

Je vous tiens au courant et vous souhaite une bonne fin de journée

Fred


nouveau message Répondre Recherche



Autre liens sur le site pour Calogero : Discographie Calogero - Tee Shirt Calogero - Poster Calogero
plan Plan du Forum Tablatures||Tags : CALOGERO, calogero, les, cyclones, passage, des, cherche, depuis, moment