Recherche Tablature : Tourne de Shy'm


nouveau message Répondre
Page 1 de 2
Recherche

#
Bonjour à tous, razz


Je cherche la tablature de Tourne, la dernière chanson de Shy'm, mais pas moyen de la trouver ... sad
Quelqu'un pourrait m'aider svp ??

Merci d'avance smiley-guitar



#
pareil je la cherche aussi mais je n'ai pas reussit a la trouver , si quelqu'un serait ou l'on peut la trouver , merci beaucoup smile

#
Au moins on est 2 on va peut etre faire bouger du monde et ça fait plaisir d'avoir une réponse razz

#
oui j'espere car je l'ai trouver nul part sad

#
Il me semble que c'est ça, en fait j'ai fait pour cette vidéo : http://www.youtube.com/watch?v=BSoCTzgiMTQ~~feature=related

le petit gimick du début :

E----------------------------------------------------------------
B----------------------------------------------------------------
G--10-h-12---8-h-10--8-------------------------------------
D--10---------8------8--------------------------------------
A-----------------------------------------------------------------
E------------------------------------------------------------------

Les accords :

E----8---
B----9---
G----10-
D----10-
A-----8--
E-----8--


E----6---
B----6---
G----7---
D----8---
A-----8--
E-----6--


E--8--
B--8--
G--8--
D--10-
A--10-
E--8--


E---11----
B--11-----
G--12-----
D--13-----
A--13-----
E--11-----

#
Merci beaucoup pour moi et les autres razz

J'ai plus qu'a essayé même si elle a l'air un peu dure pour une tite débutante comme moi mais je vais pas me décourager smile

Tchuss smiley-guitar

#
merci beaucoup je vais essayer icon_cheesygrin

#
Nan d’après la vidéo (pour la rythmique sympa) je dirais que c'est des accords Fa avec le barré en case 4 6 et 8 (désolé pour la description je ne fait que a l’oreille je connais pas les diagrammes.)

Et pour la rythmique je dirais qu'il faut gratter 10 fois chaque accord.
Ça donne:
Bas - bas/haut bas/haut haut/bas - haut/bas bas

J'espère que c'est assez explicite.

#
Je vais pas pouvoir t'aider sur ce coup car même si c'est moi qui est demandé la tablature, je suis trop débutante et ne maitrise pas encore les barrés ... icon_cry Dommage j'adore cette chanson !! bump
J'espere que you 29 va pouvoir te renseigner wink

Tchuss smiley-guitar

#
dsl je suis aussi debutant et je ne metrise pas encore les barrés sad

#
D'un coup je me sens moins seule xD

#
Salut les jeunes

Du coup je cherchais moi aussi et je serais plus parti sur ces accords pour le début :

--4
--4
--5
--6
--6
--4


puis :

--6
--6
--7
--8
--8
--6

et le "petit gimmick" mais l'air tout à fait juste ^^

#
Ah bah si vous aimez cette chanson ça va vous faire un bon exercice pour travailler l'accord de Fa en barré icon_cheesygrin

@ tipuati:

t'oublie le
--8
--8
--9
--10
--10
--8

pour revenir ensuite sur la 6 et enfin sur la 4 et ainsi de suite

pas encore essayé ce "petit gimmick"

grattmandu03

1 photo
#
Salut à tous,

Pour les accord de cette chanson je suis d'accord avec les posts précédents. Par contre, je dirais que le troisième accord (barré en 8ème case) est un accord mineur et non majeur.
Pour moi, la suite d'accord de cette chanson serait la suivante :

G#(Sol#) - - - - - - - Bb(Sib) - - - - - - Cm(Dom) - - - - - - Bb(Sib)

----4----------------------6----------------------8----------------------6----
----4----------------------6----------------------8----------------------6----
----5----------------------7----------------------8----------------------7----
----6----------------------8----------------------10---------------------8----
----6----------------------8----------------------10---------------------8----
----4----------------------6----------------------8----------------------6----

Et ça tout le long de la chanson.
En espérant vous avoir aidé.

Musicalement

#
en effet cela ma l'air tout a fait juste pour le mineur ^^



nouveau message Répondre
Page 1 de 2
Recherche


plan Plan du Forum Tablatures||Tags : tourne, shy, tablature, derniere, bonjour, cherche, recherche, chanson, moyen