tab la fouine


nouveau message Répondre
Recherche

#
salut
je cherche la tablature la fouine "d'on l'on vient" j'ai un peu de mal si vous pouviez m'aidez ce serait très aimable
merci



#
désolé mais du la fouine je ne cherche pas

encore ça aurait été du maiden led zepp ouai mais là non

en plus suffit srement de taper d'où l'on vient tab sur google pour trouver

#
ben oui désolé mais suffit de se bouger un peu le *** pour trouver

#
Oups je la refais je m'était planté de morceau icon_redface

Voila pour toi
Piste 1 (Capo 2)
E. S E E E. S E E E. S E E E. S E E
E||--3--------3---3---------3--|--2--------2---2---------2--|
B||--------0-------------0-----|--------0-------------0-----|
G||------0-------------0-------|------0-------------0-------|
D||--2-----------(2)-----------|--0-----------(0)-----------|
A||----------------------------|----------------------------|
E||----------------------------|----------------------------|


E. S E E E. S E E E. S E E E. S E E
--0--------0---0---------0--|--2--------2---2---------2--|-----||
--------0-------------0-----|--------0-------------0-----|-----||
------0-------------0-------|------0-------------0-------|-----||
----------------------------|--0-----------(0)-----------|-----||
--3-----------(3)-----------|----------------------------|-----||
----------------------------|----------------------------|-----||

Les notes entre parenthèse ,c'est parce que je sais pas si on les entend distinctement mais il vaut mieux les jouer wink

#
sean lip t'abuse serieux t'aurais pu chercher endesaccord3

#
la tab est pas sur le net wink

#
Capo 1

refrain : mim, ré, do, sol

mim
La Fouine un jour tu va percer


T'oublieras le gout de la misère, le gout du mafé

do
Tout ces gens pour qui tu auras compté

sol
Tu n'auras plus rien à leur raconter...




refrain:
mim ré
Parce que l'on sait d'ou l'on vient

do
Et que l'on a tant cherché



merci beaucoup honnie c sa la vraie


nouveau message Répondre Recherche


plan Plan du Aide sur le Forum||Tags : fouine, peu, tab, vient, tablature, cherche, mal, pouviez, merci