The Man Who Sold The World probleme de rythmique et d'accords


nouveau message Répondre
Recherche

#
Bonjour chanteur


Apres plusieurs recherche sur youtube (tous en anglais icon_cry ) j'ai décidé de poster

j'aimerais joué The Man Who Sold The World de nirvana mais le probleme c'est que les accords proposé sont trop aigu par apport a la musique ...

aussi un probleme de rytmique que j'ai du mal la ... sad :


Accords:
|:-0-0--x-0---0-0-0-|-0-0--x-0---0-0---|-1-1--x-1---1-1--0-|-1-1--x-1---1-1--0-:|
|:-2-2--x-2---2-2-2-|-2-2--x-2---2-2-0-|-3-3--x-3---3-3--0-|-3-3--x-3---3-3--0-:|
|:-2-2--x-2---2-2-2-|-2-2--x-2---2-2-0-|-2-2--x-2---2-2--0-|-2-2--x-2---2-2--0-:|
|:-2-2--x-2---2-2-2-|-2-2--x-2---2-2-0-|-0-0--x-0---0-0--0-|-0-0--x-0---0-0--0-:|
|:-0-0--x-0---0-0-0-|-0-0--x-0---0-0-0-|-------------------|-------------------:|
|:------------------|------------------|-------------------|-------------------:|

|:-0-0--x-0---0-0-0-|-0-0--x-0---0-0---|-1-1--x-1---1-1-1-|-1-1--x-1---1-1---:|
|:-2-2--x-2---2-2-2-|-2-2--x-2---2-2-0-|-1-1--x-1---1-1-1-|-1-1--x-1---1-1--0:|
|:-2-2--x-2---2-2-2-|-2-2--x-2---2-2-0-|-2-2--x-2---2-2-2-|-2-2--x-2---2-2--0:|
|:-2-2--x-2---2-2-2-|-2-2--x-2---2-2-0-|-3-3--x-3---3-3-3-|-3-3--x-3---3-3--0:|
|:-0-0--x-0---0-0-0-|-0-0--x-0---0-0-0-|-3-3--x-3---3-3-3-|-3-3--x-3---3-3--0:|
|:------------------|------------------|-1-1--x-1---1-1-1-|-1-1--x-1---1-1---:|



bien sur les accords sont ceux que je vous parler sifflote


merci d'avance maitre



sugar mountain

3 photos
#
hello

déjà accordes toi un demi ton de l'accordage normal smile_cool

Le bonheur est au bout de ton jack
#
ok en gros il faut l'accorder plus grave

sugar mountain

3 photos
#
C'est ça. Pour la rythmique je ne sais pas quoi te dire, je l'a fait au feeling...

Le bonheur est au bout de ton jack
#
d'accord merci smile_cool

#
Ce message est inutile mais juste pour te dire icon_cheesygrin The man who sold the world est de David Bowie, et pas de Nirvana. Ils l'ont reprises mais ne l'ont pas composés pour autant

#
tout remerçiment est autorisé. Mais la version de david bowie est plus aigu ?

sugar mountain

3 photos
#
yes accordage standart si je me souviens bien smile_cool

Le bonheur est au bout de ton jack
#
Ouais, la version de David Bowie est plus aigue, c'est ce qui me semble en tout cas smile_cool

#
mais elle est plus facile chanteur (enfin je pense car sa évite les barrés)

sugar mountain

3 photos
#
ben elle se joue de la même maniere icon_redface en rythmique

Le bonheur est au bout de ton jack
#
c'est bon depuis que j'ai apris les barrés je fais la version de kurt cobain et j'ai trouvé la rythmique chanteur

sugar mountain

3 photos
#
maintenant faut que tu la chantes sifflote

Le bonheur est au bout de ton jack
#
je veux bien mais je chante faux icon_confused

et quand je me concentre dans le chant je me rate à la guitare endesaccord3

sugar mountain

3 photos
#
ben tu as encore du taf je vois smile_cool



nouveau message Répondre Recherche


plan Plan du Forum Tablatures||Tags : ---, --x-, accords, probleme, who, man, world, sold, les