recherche la bonne tab pour The White Stripes / seven nation army


nouveau message Répondre
Page 1 de 2
Recherche

#
salut je cherche une table correcte pour The White Stripes / seven nation army , j'en ai tester quelque une sur le site mais j'ai trouver que cela n'était pas trop ca pour certaine vous me conseillez laquel?



#
Le riff principale c'est ça:
--------------------------------------------------
--------------------------------------------------
--------------------------------------------------
--------------------------------------------------
--0---0---3---0---------------0---0---3---0-------
------------------3---1---0----------------------3---1---3---1---0--

Bonne Gratte smiley-guitar

funkpunk

Tabber motivé
Bon Downloader
#
boblekokinu a écrit :
Le riff principale c'est ça:
--------------------------------------------------
--------------------------------------------------
--------------------------------------------------
--------------------------------------------------
--0---0---3---0---------------0---0---3---0-------
------------------3---1---0----------------------3---1---3---1---0--

Bonne Gratte smiley-guitar


Bob, t'as les bons intervalle mais pas la bonne tonalité, ça se joue une quinte au dessus
Essaye E5, G5, E5, D5, C5, B5 puis recommence smiley-guitar

#
E5 tu entends par la les accords funkpunk?

#
C'est les power chords E5 G5 etc... non?

funkpunk

Tabber motivé
Bon Downloader
#
Ouai ce sont des power chords, mais pour le E5, joue le x799, plutôt que 022

#
Je viens d'essayer et ça change tout!! Merci beaucoup pour la précision Funkpunk.
bump

wxcvbnkev

1 photo
#
E --5----5-8-5-3-1-0

E --5----5-8-5-3-1---3-1-0

E --5----5-8-5-5-8---7

E --5----5-8-10-8-8-10-8-7


voila ske moi jai kom tablaure apres je c pas si c la vrai ni combien de fois ce joue chake morceau chao hammer

zerosiris

Tabber motivé
#
"C cool davoir repondu mé je pense ta un peu 4 anné de retar et en + c fau" chanteur

Traduction : Ah petit garnement tu n'a point vu la date de ce topic , érigeait jadis il y'a moulte temps déja . Et l'eau à couler sous les ponts , c'est ce que l'on nomme "deterrage" .
Serait tu Fossoyeur ?
Celà étant ce n'est pas la vrai razz

Sans Whammy ou octaver point de saint graal ! ( notez l'allusion cacher à la pédale Holy grail wink

#
tu conés le solo stp

guitare killer

7 messages
#
Le solo se joue au bottleneck il y en a un qui est bon sur le forum.

pour jouer de la guitare il faut 5 doigts six cordes et un trou du cul -keith richards-
membre du:
Fender user's club
Ibanez user's club
digitech user's club
Zoom user's club
peadlboard user's club
epiphone user's club
vox user's club
boss
#
j'ai une tablature qui n'est pas mal en fait sa fait sa
sur la plus deuxieme cordes en partant du haut 77ensuite celle du dessous 5 au dessus 75 et encore au dessus c'est a dire la plus grosse corde 87 bonne gratte smiley-guitar

#
#
hum le seigneur des anneaux n'a aucun rapport avec la musique hum

#
hammer



nouveau message Répondre
Page 1 de 2
Recherche


plan Plan du Forum Tablatures||Tags : stripes, seven, army, nation, white, table, cherche, bonne, tab