Recherche de tablature : "We and I" de Captain Kid.


nouveau message Répondre
Recherche

#
Bonjour à tous!
Voilà je cherche désespérément la tablature du morceau "We and I" de Captain Kid, impossible de la trouver sur google!

voici le lien pour écouter le morceau : http://www.youtube.com/watch?v=UzOAxYlWZqg

Merci beaucoup à ceux qui sauront m'aider! icon_cheesygrin smiley-guitar



#
Salut :)

Alors j'ai cherché et j'ai :

Capo 8 :

A / D / A / E / D / A

voilà tu devrais pouvoir a peu près tout jouer

++

Dis moi ce que tu en penses

#
non moi je mets capo en 5 puis je fais un do

je descends les cordes
---------0--------------------------// ---------------3-
------------1----------------------// -----------------
-----0----------0-----------------// -----------------
---------------------------------// -----------------
-3------------------3-----------// ---------------3-
-------------------------------// -----------------
fin de l'intro en sol
pas fini de trouver la 2eme partie de l'intro ya une petite variante par rapport au premier phrasé

star230

1 photo
#
Les accords sont en capo 5 :
C / F / C / D / Dsus4

star230

1 photo
#
L'intro de neuil est bonne.

#
Non, pas de D, plutôt G
soit C/F/C/G

#
Aucun doute, ce sont bien ces accords là oui : C (x4) /F (x2) /C (x2) /G (x2) /F (x2) /C (x2), à partir du capo en 5. Voila la transposition en arpèges d'après ce que j'ai trouvé :


-----0------------ | -----1------------
---------1-------- | -------1----------
-----------0------ | ---2-------0h2----
---2---2---------- | -3-------3--------
-3---------------- | ------------------
------------------ | ------------------

-----0------------ | ------7-----------8p7---------
---------1-------- | ----------8-----------7-------
-----------0------ | ----7-------7---7-------------
---2---2---------- | --5-----5-----5----------0h2--
-3---------------- | ------------------------------
------------------ | ------------------------------

-----1------------ | -----0------------
-------1---------- | ---------1--------
---2-------0h2---- | -----------0------
-3-------3-------- | ---2---2----------
------------------ | -3----------------
------------------ | ------------------


A une ou deux notes près ça devrait être ça wobble

#
C'est super! Merci beaucoup d'avoir cherché!! Ça rend vraiment bien :)

#
Bonjour à tous, alors je vois que vous avez proposé pas mal de solutions. Je vois personnellement une autre façon de le jouer, je me suis basé sur un enregistrement live et il faut dire que ça rend carrément bien ^^.
C'est en capo 10 et sur une base d'accords qui sont : G, C et D.

Pour ce qui est des arpèges je propose une version simplifiée que vous pouvez voir comme une base de travail sur laquelle ajouter tous les petits embellissements qu'on entend dans le morceau.

Intro (accord G)

-------------------------------------------
------0----------0------------0----------3-
----0---0------0---0---0----0---0---0------
----------0----------0------------0--------
-------------------------------------------
-3----------3------------3------------3--3-

Et pour le reste du morceau :

G

---------------
-------0-------
-----0---0---0-
-----------0---
---------------
--3------------

C

--------------
------1-------
----0---0---0-
----------2---
-3------------
--------------

D

------2-------
----3---3---3-
----------2---
-0------------
--------------
--------------


L'ordre des accords est le suivant : Intro brkrepeatstart G (x4), C (x2), G (x2), D (x2), C (x2), G (x2) brkrepeatend

Et on répète jusqu'au bout ce schéma.

Je rappelle qu'il y a bien sûr pas mal de petite embellies dans le morceau et que je ne propose qu'une base de travail, surtout que je n'y travaille que depuis hier donc il faut laisser un peu de temps. Je posterais une tab complète quand je serais content du résultat.

Amusez vous bien!

#
Bonsoir chère zicos,

BULLSHIIIITT capo sur la dixieme frete ! preuve à l'appui ...

http://www.youtube.com/watch?v=-3ozw-Jl7g8

et c'est nettement plus beau !

#
Commentaire inutile dalguy, trop agressif je trouve surtout que juste au dessus j'expliquai la même chose sur le capo en 10ème frête. Je ne sais pas trop en quoi tu penses participer de manière constructive à la discussion... hum

#
Vraiment merci pacodu64! Ta version est top! icon_cheesygrin

#
merci je la chercher aussi :p c'est vrai que la tabs est tres dur a trouvée sur le net alors je me penche vers vous merci les gars et a celui qui a ouvert le sujet aussi bravo bravo


nouveau message Répondre Recherche


plan Plan du Forum Tablatures||Tags : morceau, kid, captain, tablature, trouver, impossible, cherche, desesperement, bonjour