Problème tablature j'ai demander a la lune ( indochine )


nouveau message Répondre
Recherche

#
Bonjour a tous je poste ce message parce que je n'arrive pas a trouver de tablature de "J'ai demander a la lune " j'ai trouvé sa mais il n'a pas de suite sur le site :
InTro :

E------------------------------
B------------------------------
G------------------------------
D--7-----9------4-----4--------
A-----7-----7------4-----4-----
E------------------------------

E------------------------------
B------------------------------
G------------------------------
D--7-----9------4-----4--------
A-----7-----7------4-----4-----
E------------------------------

E----------------------------------
B----------------------------------
B----------------------------------
D--7---7---9---9---4---4---4---4---
A----7---7---7---7---4---4---4---4-
E----------------------------------

E----------------------------------
B----------------------------------
B----------------------------------
D--7---7---9---9---4---4---4---4---
A----7---7---7---7---4---4---4---4-
E----------------------------------



Chanson

E----------------------------------
B----------------------------------
G----------------------------------
D--7---7---9---9---4---4---4---4---
A----7---7---7---7---4---4---4---4-
E----------------------------------


J'ai--demandé à la lune

Et le soleil ne le sait pas



E-----------------------------------------------------------------------------------
B-----------------------------------------------------------------------------------
G-----------------------------------------------------------------------------------
D--9---9---9---9---7---7---7---7------11----11----11----11------9----9----9----9----
A----9---9---9---9---9---9---9---9-------11----11----11-----11----11---11---11---11-
E-----------------------------------------------------------------------------------

Je lui ai montré mes brûlures Et la lune s’est moquée de moi



Mais pas de suite je ne sais pas trop bien lire et faire tous les accords je sais lire que des trucs comme sa sad donc si vous pouvez m'aidez wink



jeff-w8nc'

1 photo
#
Salut élisabeth !

Sache avant tout qu'il existe un logiciel super mega simple mais oh combien utile appelé " guitar pro " Ce logiciel te permet de lire une tablature et de la jouer ( C'est a dire qu'il reproduit la note en temps reel " .

Ainsi , tu dispose du rythme , de la tablature et du solfege !
Et tu trouvera presque toutes les chansons en format guitar pro .

Tu sauras le trouver sur un émulateur quelquonque .

Cu online , Jeff.

jeff-w8nc'

1 photo
#
Tiens , je t'envoi en impression d'écran ce que ça donne dans le cas de cette chanson sous guitar pro :

[URL=http://img251.imageshack.us/i/elisabeht1.jpg/]
[/URL]


[URL=http://img706.imageshack.us/i/elisabeht2.jpg/]
[/URL]

Voila . Biensur , l'interface est extremement simple !!

Cu online , Jeff.

#
jeff-w8nc'
jeff-w8nc' a écrit :
Salut élisabeth !

Sache avant tout qu'il existe un logiciel super mega simple mais oh combien utile appelé " guitar pro " Ce logiciel te permet de lire une tablature et de la jouer ( C'est a dire qu'il reproduit la note en temps reel " .

Ainsi , tu dispose du rythme , de la tablature et du solfege !
Et tu trouvera presque toutes les chansons en format guitar pro .

Tu sauras le trouver sur un émulateur quelquonque .

Cu online , Jeff.



Humm...évite le téléchargement illégal franchement icon_redface

Si tu ne veux pas investir dans le logiciel guitar pro ,tu a un logiciel qui est semblable mais gratuit:
Tuxguitar

wink

jeff-w8nc'

1 photo
#
J'ai dit émulateur ? Je voulais dire magasin en ligne icon_cheesygrin

Mais il est vrai que pour un debutant qui voudrais voir si il accroche ou pas a la guitarre , payer la licence c'est embetant tout de meme ^^

Au debut , j'avoue j'ai pris le crack sad

Mais maintenant j'ai la version 6 que j'ai vaillament payée , un fois que je fus sur que ça me plaisait love

Cu online , Jeff.


nouveau message Répondre Recherche


plan Plan du Forum Tablatures||Tags : ---, ----, -----, d--, ------, lune, a----, suite, a-----