Recher Accords "les p'tits plaisirs"


nouveau message Répondre
Recherche

#
Bonjour, je cherche en vain les accords de guitare de la chanson "les p'tits plaisirs" de Clara Plume. J'adore cette chanson et je n'arrive pas à trouver les accords sur internet. Merci d'avance



#
Pas de réponse ? sad

rankxerox

Hyper Tabber
Petit Downloader
1 message
#
Salut

je suis sur le titre ...
il arrive ... bump

RX
rankxerox

Hyper Tabber
Petit Downloader
1 message
#
re-

Voilà la tab des P'tits Plaisrs. Ca tourne en boucle...




|--------1---------------1-------|--------3---------------3-------|
|--------3---------------3-------|--------0---------------0-------|
|--------2---------------2-------|--------0---------------0-------|
|0-------------------------------|--------------------------------|
|--------------------------------|--------------------------------|
|--------------------------------|3-------------------------------|


|--------0---------------0-------|--------0---------------0-------|
|--------1---------------1-------|--------1---------------1-------|
|--------2---------------2-------|--------2---------------2-------|
|--------------------------------|--------------------------------|
|0-------------------------------|0-------------------------------|
|--------------------------------|--------------------------------|



et les accords de "Les bourgeons sur le bitume" :

F G Am ... qui tournent en boucle aussi...

bon week end

RX

nouveau message Répondre Recherche


plan Plan du Forum Tablatures||Tags : les, accords, chanson, plaisirs, tits, recher, bonjour, vain, cherche