Hugh Laurie's firing song - saison 4x09 Dr.House


nouveau message Répondre
Page 1 de 2
Recherche

#
Salut à tous,
Je débute à la guitare, enfin depuis bientôt 1an quand même! Mais on peut pas vraiment dire que je joue souvent à cause de mes études!...
Bon j'ai quand même entretenu le bout dmes doigts, qui sont en cuir maintenant mdr, ca vous situe un peu le niveau^^

Donc arrivons-en au sujet!

Je suis fan de Dr.House que j'ai découvert il y a peu de temps, et sachant que Hugh Laurie (aka Gregory House) est un guitariste assez exceptionnel maitre (je trouve) je m'intéresse également à tous les morceaux de guitare qu'on entend ici et là dans les épisodes...

Là, arrive l'épisode 9 saison 4 avec un petit solo magnifique à la fin ( http://www.youtube.com/watch?v=S6kDQso3L8U~~feature=related ) que je rêve de faire !...Mais j'ai peur que ca ne soit pas à ma portée!

J'ai trouvé une tab, le soucis c'est que sans la technique, la tab ne sert pas à grand chose!
-----------------------------------------------------------------
Tabbed by: a m m a r a

Tuning: Drop D D A D G B E

Capo 3rd Fret

This is the bass line played throughout the song:
e|---------------------------------------------------------------|
B|---------------------------------------------------------------|
G|---------------------------------------------------------------|
D|-----0-----0-----0------0--------------------------------------|
A|---------------------------------------------------------------|
D|--0-----0-----0------0-----------------------------------------|


The Riff: (don't forget to pick the bass)
e|--2-------2-------2--------------------------------------------|
B|-----3--------3-------3----5--------3-------3-------3------3---|
G|-------------------------------4--------2-------2------2------2|
D|---------------------------------------------------------------|
A|---------------------------------------------------------------|
D|--0------------------------------------------------------------|

e|---------------------------------------------------------------|
B|-----3----3----3----5--3----------3------3-----3------3--------|
G|---------------------------4---2------2-----2------2-----------|
D|---------------------------------------------------------------|
A|-0h2-----------------------------------------------------------|
D|---------------------------------------------------------------|

e|---------------------------------------------------------------|
B|-----3----3----3----5--3----------3------3-----3------3--------|
G|---------------------------4---2------2-----2------2-----------|
D|---------------------------------------------------------------|
A|-0h2-----------------------------------------------------------|
D|---------------------------------------------------------------|

e|--0-----0-----0------2---2--0----------------------------------|
B|-----2-----2-----2--------------3-----3-----3------------------|
G|-----------------------------------2-----2------2--------------|
D|---------------------------------------------------------------|
A|--0------------------0-0----0----------------------------------|
D|--------------------------------0------------------------------|

(And don't forget the bass)

This is a simple version, sounds just as awesome.

Let me know if there are any errors:
ammara.rounaq@gmail.com


Donc voilà qu'en pensez-vous? Comment je pourrais m'y prendre?
Merci de m'avoir lu, et j'attends vos réponses avec impatience icon_cheesygrin
++



#
Question subsidiaire : c'est ça du "picking" ?? - si oui, je suppose qu'un débutant moyen ne peut pas s'y essayer si?

vercett

1 photo
#
Ben si... pourquoi un débutant ne pourrait pas s'y essayer ? Jouer en arpège n'est pas si compliqué... le pouce de la main droite joue les basses et les autres doigts jouent les autres cordes. wink

#
Ok mais je peux me lancer là dedans en commençant directement par apprendre ce genre de morceau?...
En fait mon soucis sur ce morceau c'est que je comprend pas à quels moments placer mes basses
Ce serait plus évident avec une tablature qui mélange les deux, c'est faisable non?

vercett

1 photo
#
Les basses sont marquées, elles sont sur les cordes MI, La et Ré (jouées à vide).

En plus, sur youtube tu trouvera pleins de reprises de ce morceau... ça devrait t'aider à bien te placer. wink

#
Mouai, j'ai déjà essayé de comprendre avec les "cover" mais on voit pas vraiment les doigts qui jouent l'arpège...

Je m'y repencherais après mes partiels :smiley qui vomit: !

#
Bon et bien après quelques exercices de picking trouvés sur youtube, jme débrouille pas trop mal...Mais je ne comprend toujours pas la tablature en question...
Si quelqu'un pouvais m'aider et faire une genre de tablature hybride,un croisement entre la ligne des basses à jouer et la mélodie, se srait trooop cool ^^
@ pluch'

#
J'ai eu un déclic !!! Je sais comment le jouer ca y est ^^!
J'ai fait une partition sur GP6 pour ceux qui sont intéressés, mais bon sa rend mieux en vrai, puis je ne suis pas virtuose de GP6 en même temps, donc quelques erreurs sont a prévoir^^:

http://rapidshare.com/files/388832339/Laurie_s.gpx.html

NB: Rapidshare héberge mon fichier pour 10 téléchargements,donc si quelqu'un n'arrive pas à l'avoir je le ferais héberger ailleurs (dans le cas ou plus de 10 personnes soient intéressés ce dont je doute^^)

#
Salut, est-ce que tu pourrais publier ta tablature sur partoch STP ? :)

#
Euh ouai jveux bien essayer (pour ceux qui ont essayé ma tablature guitar pro, jme suis rendu compte qu'elle était fausse,j'en suis désolé)

Du coup demain je pourrais essayer de la mettre sous forme "bloc-note" avec la vraie mélodie cette fois^^...
Il y aura juste un passage un peu douteux parce que j'ai pas réussis à comprendre comment le jouer, mais le reste sonne bien je trouve.

Bref vous me direz ça demain wink

#
Salut à tous,
Bon j'ai voulus déposer ma tablature mais Hugh Laurie n'étant pas référencé dans la liste d'artistes j'ai dû leur proposer de l'y rajouter =)
Donc dès qu'il est dispo dans la liste je pourrais déposer ma tablature.

Jvous tiens au courant!

EDIT: J'avais mal lu les conditions d'acceptation de nouvel artiste "Ne sont acceptés, que les artistes ayant un site officiel, et ayant déjà au moins un album à leur actif." donc je post la Tab sur cette discussion

#
Musique de Hugh Laurie aka. Dr House, scène finale de l'épisode 9, saison 4.

---Important---
Tuning guitare en Drop D -> DADGBe au lieu de EADGBe
Capodastre en case 3

e 2-----2-------2-----------------2---------2----|
B ----------3----3--5---3-----3--------3-------3-|
G --------------------4--------------------------|
D --0-----0---------------0-----0---------0------|
A -----------------------------------------------|
D 0---0-------0---------0---0--------0-----------|


e ------------------------------------------------------------------|
B ------3--------3------------3---5--3----------------3----------3--|
G ---------------------0--------0------4--2-----2----------2-------2|
D ---------0--------0-----------------------0------0----------0-----|
A -0h2--------------------------------------------------------------|
D ------0-----0------------0--------------0---0----------0----------|


e ----------------------------------------------------2----------2--|
B ------3--------3------------3---5--3------------------------------|
G ---------------------0--------0------4--2-----2----------2-------2|
D ---------0--------0-----------------------0------0----------0-----|
A -0h2--------------------------------------------------------------|
D ------0-----0------------0--------------0---0----------0----------|


e 0-------0----------0----2---2-0-------------------------------|
B -------------2-------2-----------3------3---------3---------3-|
G ---------------------------------------------0------0---------|
D --0-------0------------------------0-------0------------------|
A --------------------------------------------------------0h2---|
D 0----0----------0-------0-0---0--0----0--------0------------0-|



Voilà c'est ma première tab, si vous trouvez des fautes ou des incohérences faites le moi savoir !

L'important pour bien le jouer, c'est le rythme en picking, écoutez bien l'originale et bossez avec, ça devrait aller.

Bonne gratte wink

#
Bonjour,
Je suis de passage pour vous proposer une fin toute bête qui permet de revenir au début du morceau. Je me suis remis à le jouer aujourd'hui et sa ma sauté au yeux, ou plutôt aux oreilles, tellement c'était évident!

J'ai donc édité la tab, et j'en profite pour poster ma version, non sans défauts (tempo pas très régulier, et 1-2 fausses notes seconde 11 et seconde 17 pour être précis mdr), mais dont je suis plutôt satisfait

http://sd-2.archive-host.com/membres/playlist/96377721239774376/Lauries_compo.wm...

Votre avis m'intéresse ! hammer
@+

#
Bonsoir à tous , étant moi même un grand fan de Hugh Laurie , je vient a vous pour vous demander de m'aider a Trouver les accords de sa reprise " You Don't Know My Mind" . Merci d'avance à tous . Bonne soirée. icon_cheesygrin smile_cool smiley-guitar

#
Salut,

Pour infos, je voulais dire que Hugh Laurie a sortis un album intitulé "Let them talk" en ce début de semaine (Lundi 18 Avril) dans un style plutôt blues, et il est très bon cet album razz
http://musique.fnac.com/a3470600/Hugh-Laurie-Let-them-talk-CD-album

Et donc justement Toxy, vu que son album est tout juste sortis, à moins de trouver la musique à l'oreille, tu ne trouveras pas tout de suite de partitions ou de tablatures



nouveau message Répondre
Page 1 de 2
Recherche


plan Plan du Forum Débutants||Tags : ------, -----, ----, -------, bass, --------, ---, house, forget