Tablature Thomann


nouveau message Répondre
Recherche

#
Plop à tous, les gratteux chanteur
Je poste ici car j'aimerai bien savoir si quelqu'un connais (ou saurais décripter, pour ceux qui ont des oreilles parfaites bump ) la tablature de Thomann ( http://www.thomann.de/fr/engl_e325_thunder_head_topteil.htm , cliquez pour selectionner le son, rubrique metal).
Voila, c'est tout, merci d'avance et bonne gratte chanteur



#
je suis désolé, mais non, mon oreille n'est pas assez doué pour reconnaitre le morceau.
Par contre, si tu le permet, je squatte ton topic pour savoir si une personne connait le morceau blues et rock également (tant qu'à faire ! lol).

#
Sans problème, quand y'en a pour 1, y'en a pour 2 icon_cheesygrin .
Y'a vraiment personne ? Aller quoi, juste pour que je me la pète devant mes coupains icon_redface . Personne n'a essayer de déchiffré ce riff super ? (C'est vrai quoi, You ROCK !).

useyourillusion

5 photos
#
D'oreille , avec un rythme simplifie :



---0----0-0-0-0-0-0-0-----------0-0-0---------0-0----------------
---2----2-2-2-2-2-2-2-------1---2-2-2---1-----2-2----------------
---2----2-2-2-2-2-2-2-------3---2-2-2---3-----2-2---------------- 3 x
----------------------------3-----------3------------------------
-----------------------------------------------------------------
-----------------------------------------------------------------




---0-0-0-0-0-0-0-0---------------3-3--------
---2-2-2-2-2-2-2-2---------1-0---5-5--------
---2-2-2-2-2-2-2-2---------3-2---5-5--------
---------------------------3-2--------------
--------------------------------------------
--------------------------------------------



---2---2-2--2-2-2-----2-2--4h5p4-2-----------
---4---4--4-------3h4-4-4--------4-----------
---4-4-4--------------4-4--------4-----------
---------------------------------------------
---------------------------------------------
---------------------------------------------



---2---2-2--2-2-2-----2-2--4-4----2-----------
---4---4--4-------3h4-4-4--6-6----4-----------
---4-4-4--------------4-4--6-6----4-----------
----------------------------------------------
----------------------------------------------
----------------------------------------------

---0----0-0-0-0-0-0-0-----------0-0-0---------0-0----------------
---2----2-2-2-2-2-2-2-------1---2-2-2---1-----2-2----------------
---2----2-2-2-2-2-2-2-------3---2-2-2---3-----2-2---------------- x4
----------------------------3-----------3------------------------
-----------------------------------------------------------------
-----------------------------------------------------------------


Il y a un bug , oublie le x ....

#
AAhhhh merci maitre maitre
Ca m'a l'air bon, dès que j'ai plus la flem, je go l'essayer !

#
Estce quelqu'un connaitrais la tablature pour la partie country de ce modéle : http://www.thomann.de/fr/gibson_blues_king_vs.htm
ainsi que la partie picking ?

Merci d'avance et désolé de resortir ce topic

#
Qui pourrai faire de meme pour la tablature rebrique blues ?

#
d'ailleurs depuis le temps que je les cherche !!!

NB : par contre, j'ai beau essayer différent modèles sur thomann, je trouve que les morceaux sont tous les mêmes quelques soit la guitare !!! d'où proviens ce problème ?

#
DÉTERRAGE !

Pour ceux que ça intéresse encore, j'ai réussi à repiquer l'extrait country des grattes acoustiques et je travail (encore ...) sur le blues (le premier) mais je connais pas bien les accords blues nécessaires ...
Voici donc le country :

e|---3-3------3-3-----3-3-------3-3-----3-3-----3-3-----
B|---3-3------3-3-----3-3-------3-3-----3-3-----3-3-----
G|---0-0------0-0-----0-0-------0-0-----0-0-0h2-2-2-0---
D|---0-0------0-0-0h2-0-0-0-----2-2-0h2-2-2-----0-0---2- x 2 (je crois ...)
A|-------0h2----------------2-3-------------------------
E|-3----------------------------------------------------

Et pour la fin ça donne ça :

e|---3-3-----3----2-2-022---3-1-0------------------------1--
B|---3-3-----3----3-3-333---------3-1-0------------------0--
G|---0-0-----0----2-2-222---------------2-0--------------0--
D|---0-0-----0--0-0-0-000-------------------2-0----------0--
A|-------0h2-------------------------------------1/2-----2--
E|-3-------------------------------------------------3---3--


#
Salut !
Moi c'est surtout le sample "hazey" de thomann que j'adore ! Alors je suis preneur de toute partoche ^^


nouveau message Répondre Recherche


plan Plan du Forum Tablatures||Tags : thomann, tablature, connais, quelqu, saurais, decripter, des, ceux, savoir