cherche tablature Shirohae


nouveau message Répondre
Recherche

thepro

1 photo
#
bonjour, ca fait longtemp que je cherche la tablature guitare de Shirohae smiley-guitar

PS : [Naruto Shippuuden Original Soundtrack 2] 25 - Shirohae nom + album je crois

c'est une musique de naruto shippuuden qui est dans le 144, donc j'aimerais la tablature ou partitions S.V.P

merci beaucoup de vos futur réponses,
PS: elle est sur ce site : http://naruto-kyubi9.blog.jeuxvideo.com/r43490/musique-naruto/48/


merci beaucoup, ca serait sympa... sad maitre



thepro

1 photo
#
est ce que quelqu'un connait un moyen pour moi de la trouver S.V.P ?
ou est ce que quelqu'un peut le faire à l'oreil S.V.P
merci
j'en demande beaucoup ... mais c'est parceque je la veut !!! smiley-guitar

thepro

1 photo
#
s'il vous plait quelqu'un peu chercher car j'ai cherché et rien ...

thepro

1 photo
#
je pense avoir trouver mon bonheure,
cette tablature
Yuukimaru's Theme from Naruto Shippuuden

Yasuharu TAKANASHI >> >>

guitar (Capo 4)
^ ^
E E E E E E E E E E E E E E E E
E||------------------------0--|--------------------------|
B||------------1--3-----------|--------------------------|
G||*--2-----2-----------2-----|--2-----------2-----------|
D||*-----2-----2-----2--------|--------3-----------3-----|
A||---0-----------------------|-----3-----3-----3-----3--|
E||---------------------------|--1-----------------------|


^ ^
E E E E E E E E E E E E E E E E
-----------------------3--|--0-----------0-----0--3--|
-----------1--3-----------|--------1-----------1-----|
--2-----0-----4-----0-----|-----0-----0-----0--------|
-----0-----0-----0--------|--------------------------|
--------------------------|--3-----------------------|
--3-----------------------|--------------------------|


III -- --|
^
E E E E E E E E E E E E E E E E
--5-------------------3--0--|--0-----------------------|
----------------------------|--------------1-----------|
----------------2-----------|--------2-----------2-----|
---------3------------3-----|-----2-----2-----2-----2--|
-----3------3------3--------|--0-----------------------|
--5---------L---------------|--------------------------|


^ ^
E E E E E E E E E E E E E E E E
-----------0--------------|--------------------------|
--3-----------0--------1--|--------------1-----------|
--------0-----2-----0-----|--2-----2-----------2-----|
-----0-----0-----0--------|-----2-----2-----2-----2--|
--------------------------|--0-----------------------|
--3-----------------------|--------------------------|


^
E E E E E E E E W W
---------------------------||-------------------|-------------------||
--------0-----1------------||-------------------|-------------------||
--------------------2-----*||--2----------------|--L----------------||
-----2-----2-----2-----2--*||--2----------------|-------------------||
--0------------------------||--0----------------|--L----------------||
---------------------------||-------------------|-------------------||

Legend
---------------
W - whole
H - half
Q - quarter
E - 8th

^ - brush up
v - brush down

je pense que c'est ça...

#
Ben je vais ka tester, et je t'en remercie car moi même je l'a cherchais ^^ , so thanks xd smiley-guitar

thepro

1 photo
#
de rien ^^, c'est bon ou pas ?
bonne gratte smiley-guitar

#
E-----------------|-----------------|---------------------|-----------------|
B--------3---1----|--------0---1----|---------1-3-----5/1-|---------1-------|
G----2---2---2----|----2---2---2----|-0h2---2-------2-----|-2---2-----2---2-|
D------2---2------|------2---2------|-----2-------2-------|-3-3---3-----3---|
A----0------------|----0------------|-0-------------------|-3---------------|
E-----------------|-----------------|---------------------|-----------------|

E-----------------|-1h3-0-----------|---------------------|-----------------------|
B---------1-3-----|-----1-------1---|-5-8-8/10------------|-8-5-3/5---------------|
G-0h2---2-------2-|---------0-----0-|----------0---0----0-|---------0---0-5-0---0-|
D-----0-------0---|-------2---2-----|----------------10---|-----------------------|
A-----------------|-----3-----------|-----8------8--------|-----3-----3-------3---|
E-3---------------|-----------------|---------------------|-----------------------|

E---------0---------|-----------------|-----------------|
B-0h3-------1-----0-|---------1-------|---------1-------|
G-----0-------0-----|-2---2-----2---2-|-----2-----------|
D-------0-------0---|---3---3-----3---|---3---3---------|
A-------------------|-3---------------|-3---------------|
E-3---------1-------|-----------------|-----------------|

E-----------8-------|-7---5---3-------|-5---7---8-------|-0---1---3---------|
B-3h5---------------|-----------------|-----------------|-----1---1---------|
G-------0-------0---|---0---0-----0---|---0---0-----0---|---0---0-------0---|
D-----0---0---0---0-|-----------0---0-|-3---------0---0-|-------------2---2-|
A-------------------|-----------------|---------8-------|-3-----------------|
E-5---------5-------|-3-------3-------|-----------------|-------------------|

E---------3h5-------|-8---7---5-------|-7-------3-------|-3h5--------8---7---|
B-3-----------------|-----------------|-----------------|--------------------|
G-----0---------0---|---0---0-----0---|-----0-------0---|-------0----0-0---0-|
D-3-3---3-3---3---3-|-----------0---0-|---0---0---0---0-|-3---3---3----------|
A-------------------|-----------------|-----------------|--------------------|
E-------------------|-5-------5-------|-3-------3-------|--------------------|

E-----------8-------|-7---5---3-------|-5---7---8-------|-----0---1---3---------|
B-3h5---------------|-----------------|-----------------|-----1---1---1---------|
G-------0-------0---|---0---0-----0---|---0---0-----0---|-------0---0-------0---|
D-----0---0---0---0-|-----------0---0-|-3---------0-----|-----------------2---2-|
A-------------------|-----------------|---------8-------|-0-2-3-----------------|
E-5---------5-------|-3-------3-------|-----------------|-----------------------|

E---------3h5-------|-8---7---5-------|-7-------3-------|-3h5--------8---7---5h7---
B-3-----------------|-----------------|-----------------|--------------------------
G-----0---------0---|---0---0-----0---|-----0-------0---|-------0----0-0---0-------
D-3-3---3-3---3---3-|-----------0---0-|---0---0---0---0-|-3---3---3--------------0-
A-------------------|-----------------|-----------------|--------------------------
E-------------------|-5-------5-------|-3-------3-------|--------------------5-----

-------|-----------------|---------------------|-----------------|
-3---1-|--------0---1----|---------1-3-----5/1-|-----------------|
-2---2-|----2---2---2----|-0h2-----------------|-2---------------|
-------|------2---2------|---------------------|-3---------------|
---0---|----0------------|-0-------------------|-3---------------|
-------|-----------------|---------------------|-----------------|

E-----------------|-1h3-0---------------|--------------------|---------------------------|
B---------1-3-----|-----1-------0h1-0---|-5-8-8h10-----------|-8/5-5/3-3h5---------------|
G-0h2-----------2-|---------0---------0-|----------0---0---0-|-------------0---0-5-0---0-|
D-------------0---|-------2---2---------|---------------10---|---------------------------|
A-----------------|-----3---------------|-----8------8-------|---------3-----3-------3---|
E-3---------------|---------------------|--------------------|---------------------------|

E---------0---------|-----------------|-5---------------|-----------------0-|
B-0h3-------1-----0-|---------1-------|---------1-------|---------1-------0-|
G-----0-------0-----|-2---2-----2---2-|-----2-----2---2-|-2---2-------2---2-|
D-------0-------0---|---3---3-----3---|---3---3-----3---|---2---2---2---2-2-|
A-------------------|-3---------------|-----------------|-0---------------0-|
E-3---------1-------|-----------------|-----------------|-----------------0-|



nouveau message Répondre Recherche


plan Plan du Forum Tablatures||Tags : naruto, tablature, shirohae, merci, shippuuden, cherche, beaucoup, musique, elle