Mathieu Chedid : Amssétou


nouveau message Répondre
Recherche

#
J'aimerais trouvé la tablature du nouveau tube de -M-, Amssétou [tiré de l'album Mister Mystère] et entière si possible et avant le 21 juin. Merci d'avance =) Répondez vite svp !



#
Salut !

J'aime bien cette chanson aussi et je l'ai cherchée à l'oreille vite fait,, et en me fiant à des vidéos que j'ai vu de lui en live, il fait ça :

-----------------------------------------------------------------
-----------------------------------------------------------------
-----------------------------------------------------------------
-----------------------------------------------------------------
-5h7-7-7--7-5h7-----------5-----5h7---5h7-------------5----------
----------------7-5-5-5h7---7-7-----7-----7-5-5-5-5h7---0--------


Et pour les accords, se serait : --- --- --- ---
-8- -5- -7- -5-
-9- -6- -7- -6-
-9- -7- -9- -7-
-7- -7- -9- -7-
--- -5- -7- -5-
D'après la vidéo suivante :

http://www.youtube.com/watch?v=Ye8T-YVUuxA

Après dans l'album je crois qu'il désaccorde sa guitare, un demie ton en dessous. Les accords donne approximativement : D#m - G#m - F# - G#m

Voila, encore une fois, tout n'est qu'approximatif ! si quelqu'un trouve mieux, n'hésitez pas à me le dire !

Bonne soirée !

#
J'ai poster un truc mais c'est un live. Dans l'album j'arrive pas à trouver.
En live c'est d'après ca : http://www.youtube.com/watch?v=rdqzjC0rlgw.

Mais il fait ca dans tout ses concerts.

#
recherche tablature M


nouveau message Répondre Recherche



Autre liens sur le site pour Matthieu Chedid : Discographie Matthieu Chedid - Tee Shirt Matthieu Chedid - Poster Matthieu Chedid
plan Plan du Forum Tablatures||Tags : chedid, CHEDID, amssetou, MATHIEU, mathieu, tube, nouveau, trouve, tablature