Kid loco


nouveau message Répondre
Recherche

#
Bonjour,
je cherche sans succès une partition, (les accords) d'une chanson de Kid Loco, "I want you".
Merci :)



#
Salut
Les accords sont D et G tout le long de la chanson!

Je t'ai mis aussi la petite mélodie :
E|-------------5------|----5---------------
B|-3--5--3--7---------|-7-----7--5--3------
G|--------------------|--------------------
D|--------------------|--------------------
A|--------------------|--------------------
E|--------------------|--------------------


|-------------5------|-7--5---------------|
|-3--5--3--7---------|-------7--5--3------|
|--------------------|--------------------|
|--------------------|--------------------|
|--------------------|--------------------|
|--------------------|--------------------|

E|--------------------|
B|----3--5--3---------|
G|-4------------------|
D|--------------------|
A|--------------------|
E|--------------------|


nouveau message Répondre Recherche


plan Plan du Forum Tablatures||Tags : kid, loco, succes, sans, cherche, bonjour, partition, les, merci