les gammes, comment s'y prendre ?


Discussion Verrouillée
Recherche

#
salut

je débute en guitare, et faute de trouver des morceaux sympa a jouer (j'en joue quelques uns mais la plupart des morceaux proposer sur les forums débutant ne me disent rien), je me suis mis a faire des gammes

donc j'ai vue un poste sur ce forum avec beaucoup de gamme proposer

le problème (et la je suis sur que je me prend la tète pour rien encore une fois) c'est que je ne sais pas comment m'y prendre

par exemple pour la gamme de LA majeur

------------------------------4-5-7-----------------------
-------------------------5-7------------------------------
-------------------4-6-7----------------------------------
-------------4-6-7----------------------------------------
-------4-5-7----------------------------------------------
-4-5-7----------------------------------------------------


-------------------------------7-9-10---------------------
------------------------7-9-10----------------------------
------------------6-7-9-----------------------------------
------------6-7-9-----------------------------------------
--------7-9-----------------------------------------------
-7-9-10---------------------------------------------------


--------------------------------------9-10-12-------------
------------------------------9-10-12---------------------
-------------------------9-11-----------------------------
-----------------9-11-12----------------------------------
---------9-11-12------------------------------------------
-9-10-12--------------------------------------------------


-------------------------------------------12-14----------
----------------------------------12-14-15----------------
-------------------------11-13-14-------------------------
----------------11-12-14----------------------------------
-------11-12-14-------------------------------------------
-12-14----------------------------------------------------


-------------------------------------------14-16-17-------
----------------------------------14-15-17----------------
-------------------------13-14-16-------------------------
-------------------14-16----------------------------------
----------14-16-17----------------------------------------
-14-16-17-------------------------------------------------




est ce que je doit faire la première partie:
------------------------------4-5-7-----------------------
-------------------------5-7------------------------------
-------------------4-6-7----------------------------------
-------------4-6-7----------------------------------------
-------4-5-7----------------------------------------------
-4-5-7----------------------------------------------------
puis la remonter ? (la reprendre a l'envers en commençant par la plus petite corde)
ou passer directement a la deuxième partie puis la troisième etc ?
ou alors on fait un peu se qu'on veux ?

bref question idiote m'enfin...

merci ^^



funkpunk

Tabber motivé
Bon Downloader
#
Merci de faire une recherche avant d'ouvrir un nouveau sujet.

http://www.partoch.com/search/GAMMES,4.html

Je verrouille.


Discussion Verrouillée Recherche


plan Plan du Forum Débutants||Tags : des, puis, morceaux, les, faire, partie, proposer, prendre, comment