Harmonisation mélodie


nouveau message Répondre
Recherche

#
Bonjour à tous,

je ne suis pas sur du terme "harmonisation" soit correct mais bref, j'ai donc trouver une mélodie basique ici: http://www.tabs4acoustic.com/forum-guitare-acoustique/post163944.html

J'aimerais pouvoir remplacer certaine note par un accord histoire d'avoir quelque chose de moins ennuyeux, donc comment faire pour trouver la gamme et accords qui correspondent?

Merci
++



#
tu veut dire un accompagnement?
En tous cas ce morceaux est dans la tonalité de Do Majeur
Voici quelques accords qui devraient passer:
DoM,Rém,Mim,FaM,SolM,Lam,Sim75b

#
merci c'est en partie ce que je voulais savoir, c'est pas exactement un accompagnement je pense, je voulais un peu enrichir la mélodie parce que une note à la fois ca fait vraiment pas terrible

#
Regarde, je viens de te faire un petit arrangement. J'ai modifié un poil l'original. Les harmonisations sont presque tout le temps basé sur des tierces.


E||-------|-------|------------------------|------------------------|
B||-------|-------|--7--7--7--8---7---5----|--7--7--7--8---7---5----|
G||-------|-------|--7--7--7--9---7---6----|--7--7--7--9---7---6----|
D||-------|-------|-------------------7----|-------------------7----|
A||-------|-------|------------------------|------------------------|
E||-------|-------|------------------------|------------------------|



--5--5-----5--5----------|--5--5-----5--5----------|------------------------|
--7--7--7--7--7--7-------|--7--7--7--7--7--7-------|--7--7--7--8---7---5----|
--------7--------7-------|--------7--------7-------|--7--7--7--9---7---6----|
-------------------------|-------------------------|-------------------7----|
-------------------------|-------------------------|------------------------|
-------------------------|-------------------------|------------------------|



------------------------|-------------------------|-------------------5-----|
--7--7--7--8---7---5----|-------------------------|-------------------5-----|
--7--7--7--9---7---6----|--7--7--7--7--9----7--7--|--7--7--7--7--9----6-----|
-------------------7----|--7--7--7--7--7----7--7--|--8--8--8--8--8----7-----|
------------------------|-------------------------|-------------------------|
------------------------|-------------------------|-------------------------|


23x
---------------------||-----------||
--7------------------||-----------||
--7-----------------*||-----------||
--------------------*||-----------||
---------------------||-----------||
---------------------||-----------||


Si le "8" de l'avant dernière case de te plait pas, tu peut le remplacer par un 7 (perso je l'aime bien, ça donne une belle couleur mineure).

#
merci d´avoir prit le temps de modfifier la tab, je test dès que je peux je vais essayer d´analyser ce que tu as fait wink


nouveau message Répondre Recherche


plan Plan du Forum Solfège||Tags : donc, harmonisation, trouver, melodie, www, forum-guitare-acoustique, ici, pouvoir, html