Rana Farhan


nouveau message Répondre
Recherche

#
Bonjour à toutes et tous,

J'essaie de de décrypter le titre "Drunk with love" de la chanteuse iranienne Rana Farhan.
Je pense que c'est un blues... Le rift de départ à la guitare est assez simple, mais pour les accords et la structure... je sèche...
(je vais également essayer d'avoir les paroles en persan).

Quelqu'un connaît les accords ou peut facilement en retrouver quelques uns ?

Merci mille fois d'avance de votre aide !

Voici un lien vers le titre en question :
http://vodpod.com/watch/2557150-drunk-with-love-rana-farhan



#
Auf Schlag werde ich du nicht helfen können
su si colpo io non poco non aiutarti

#
Pour l'instant, j'en suis là :

Intro
Do#7

Guitare rift 1
Do#7 Sol#7
Do#7 Sol#7

Chant (2)
Do#7 Sol#7
Do#7 Fa#7 La7 Sol#7

Guitare rift 2
Do#7 Sol#7
Do#7 Fa#7 La7 Sol#7

Chant (2)
Do#7 Sol#7
Do#7 Fa#7 La7 Sol#7

Chant pont
.... La7 Sol#7

Chant (1)
Do#7 Sol#7
Do#7 Fa#7 La7 Sol#7

Guitare solo (2)
Do#7 Sol#7
Do#7 Fa#7 La7 Sol#7

Chant pont
La7 Sol#7

Chant (1)
Do#7 Sol#7
Do#7 Fa#7 La7 Sol#7

Coda
...

#
Guitare rift 1

Do#7 Do#7 Do#7 Sol#7
|----------------------------------|------------------------------|---------------------------------|----------------------------|
|----------------------------------|------------------------------|---------------------------------|----------------------------|
|---------------------4-----------|--------------------4--------|--------------------4------------|----------------------------|
|----------2-----------------2---|----------2--------------2---|----------2------------------6--|---4-----------------------|
|-----4---------4----------------|------4-------4--------------|------4-------4---------4------|----------------------------|
|----------------------------------|------------------------------|----------------------------------|---------------------------|
Do#7 Do#7 Do#7 Sol#7
|----------------------------------|------------------------------|---------------------------------|----------------------------|
|----------------------------------|------------------------------|---------------------------------|----------------------------|
|---------------------4-----------|--------------------4--------|--------------------4------------|----------------------------|
|----------2-----------------2---|----------2--------------2---|----------2------------------6--|---4-----------------------|
|-----4---------4----------------|------4-------4--------------|------4-------4---------4------|----------------------------|
|----------------------------------|------------------------------|----------------------------------|---------------------------|

#
Guitare rift 2
Do#7 Do#7 Do#7 Sol#7
|----------------------------------|------------------------------|---------------------------------|----------------------------|
|----------------------------------|------------------------------|---------------------------------|----------------------------|
|---------------------4-----------|--------------------4--------|--------------------4------------|----------------------------|
|----------2-----------------2---|----------2--------------2---|----------2------------------6--|---4-----------------------|
|-----4---------4----------------|------4-------4--------------|------4-------4---------4------|----------------------------|
|----------------------------------|------------------------------|----------------------------------|---------------------------|
Do#7 Fa#7 La7 Sol#7 Do#7
|---------------------------------|-------------------------------|----------------------------------|---------------------------|
|---------------------------------|-------------------------------|----------------------------------|---------------------------|
|--------------------4------------|------------------------------|----------------------------------|---------------------------|
|----------2------------------4--|---2--------------------------|--------2-----5--4--2--4--2--|---------------------------|
|------4-------4---------4------|-------------------------------|-----4----4---------------------|-4--4--------------------|
|----------------------------------|------------------------------|----------------------------------|---------------------------|

C'est dommage, les blancs ne sont pas pris en compte pour espacer les accords....


nouveau message Répondre Recherche


plan Plan du Forum Tablatures||Tags : les, rana, farhan, love, drunk, with, titre, accords, seche