Recherche de la Tablature : Générique Sons Of Anarchy.


nouveau message Répondre
Recherche

#
Bonjour, je recherche la tablature, de préférence sur Guitar Pro, de This Life jouait par Curtis Stigers & The Forest Rangers mais je ne la trouve pas. C'est la chanson du générique de la série Sons Of Anarchy.
(http://www.youtube.com/watch?v=xHQMvhcj0EI&feature=related).
Donc si quelqu'un pouvait m'aider ce serait vraiment sympa. icon_cheesygrin



lion dread

Jeune tabber
4 photos
#
J'ai trouvé ca sa t'aidera peut-etre

Grille d'accords:
G G/F Cadd9 Fsus2/G Eb/G
3x0033 xx3033 x3x033 3x3013 3x0343

Pour accompager le morceau s'accorder un 1/2 ton en dessous (D# G# C# F# A# D#)

(Couplet guitare accoustic)

G G/F G Cadd9 G/F Cadd9
||----3-----3--------3---3---|-----------3----------||
||----3-----3--3-(3)-3-3-3---|-----3-----3--3-------||
||----------0--0-(0)---0-----|--0--0-----0--0-------|| x4
||--0-----3b-----------------|--x-----3b------------||
||--x------------------------|-/3-------------3-1---||
||--3------------------------|----------------------||


(Refrain)

G Fsus2/G
|--3--(3)-3-(3)------------|-3-(3)-3-(3)------------|
|--3--(3)-3-(3)------------|-1-(1)-1-(1)------------|
|--0--(0)-0-(0)-3b--0---0--|-0-(0)-0-(0)-3b--0---0--|
|--0--(0)-0-(0)-------3----|-3-(3)-3-(3)-------3----|
|--x--(x)-x-(x)------------|-x-(x)-x-(x)------------|
|--3---3--3-(3)------------|-3--3--3-(3)------------|

Eb/G G
|--3--(3)-3-(3)------------|-3-(3)-3-(3)------------|
|--4--(4)-4-(4)------------|-3-(3)-3-(3)------------|
|--3--(3)-3-(3)-3b--0---0--|-0-(0)-0-(0)-3b--0---0--|
|--0--(0)-0-(0)-------3----|-0-(0)-0-(0)-------3----|
|--x--(x)-x-(x)------------|-x-(x)-x-(x)------------|
|--3---3--3-(3)------------|-3--3--3-(3)------------|

G Fsus2/G
|--3--(3)-3-(3)------------|-3-(3)-3-(3)------------|
|--3--(3)-3-(3)------------|-1-(1)-1-(1)------------|
|--0--(0)-0-(0)-3b--0---0--|-0-(0)-0-(0)-3b--0---0--|
|--0--(0)-0-(0)-------3----|-3-(3)-3-(3)-------3----|
|--x--(x)-x-(x)------------|-x-(x)-x-(x)------------|
|--3---3--3-(3)------------|-3--3--3-(3)------------|

Eb/G Fsus2/G
|--3--(3)-3-(3)------------|-3---------------------*|
|--4--(4)-4-(4)------------|-1---------------------*|
|--3--(3)-3-(3)-3b--0---0--|-0---------------------*|
|--0--(0)-0-(0)-------3----|-3---------------------*|
|--x--(x)-x-(x)------------|-x---------------------*|
|--3---3--3-(3)------------|-3---------------------*|



(Couplet Guitare II - saturée)

|------------------------------------|-----------------------------------|
|----5-----5-----5b6r5-3-------------|-----5-----5-----5b6r5-3-----------|
|----5b6r==5-3--------------3-4------|-----5b6r==5-3-------------3-4-----|
|--------------5---------5-------5---|---------------5---------5------5--|
|------------------------------------|-----------------------------------|
|------------------------------------|-----------------------------------|

|------------------------------------|---------------------------5b6r5--3-|
|----5-----5-----5b6r5-3-------------|-----5-----5-----5b6r5-3------------|
|----5b6r==5-3--------------3-4------|-----5b6r==5-3----------------------|
|--------------5---------5-------5---|---------------5---------5----------|
|------------------------------------|------------------------------------|
|------------------------------------|------------------------------------|

#
la, je vais rouspeter un peu . (a mon age on a le droit ).
quand je regarde cette tab proposée, j'ai l'impression de lire un bouquin de chimie organique et d'essayer de decrypter la structure d'une molecule complexe.....

alors, pour gagner du temps, je me refere a google (notre ami), et je trouve par exemple:
http://www.google.fr/search?sourceid=navclient&hl=fr&ie=UTF-8&rlz=1T4ACPW_frFR43...

un petit copier coller, et j'ai tout ce qu'il me faut.

Ps: pour ceux qui ne sauraient pas faire un copier coller : ouvrir la page google et rechercher : this life tab

lion dread

Jeune tabber
4 photos
#
C'est du copier coller mais sur le forum sa reste pas en place je l'ai mise la
http://www.partoch.com/artistes/tablature,TV,SONS+OF+ANARCHY+THEME,3086536.html


nouveau message Répondre Recherche


plan Plan du Forum Tablatures||Tags : sons, recherche, anarchy, generique, tablature, par, stigers, curtis, jouait