help ! arpeges pour "ceux qui sont en laisse " de saez


nouveau message Répondre
Recherche

#
salut a tous !!
helas je dois vous relancer tous et toutes je n arrive pas a trouver les arpeges dun titre de saez : ceux qui sont en laisse..comme d hab toujours en nuances c est sublime mais pas moyen de trouver l arpege !! qq un pourrait il me venir en aide ....
d avance merci de vous creuser un peu les méninges.....



jeguil

Artiste participatif
9 photos
132 messages
#
T'es gonflé, c'est à toi de te creuser les méninges pour te trouver le morceau dont tu as envie ! icon_cheesygrin
Pour jouer en arpèges, il suffit d'avoir les accords et c'est tout !
Trouve-toi les accords et joue-les en arpège et le tour est joué (c'est le cas de le dire !)

Ce n'est pas en sciant que Léonard devint scie...
http://ptitelandaise.blogspot.com/
http://www.myspace.com/groupehotstuff
#
ACCORDS :
Am : 002210
F : 133211
C : 032010
G : 320003
E : 022100

|--------------------------1-----1--0-LR--------------------------------------------1---0--|
|---------1------------1-----1--------------------1----------------1------------1----------|
|-----2-----2---2----2---2-----2--------------2-----2---2------0-----0---0----2---2--------|
|---2---2-----2----3------------------------2---2-----2------2---2-----2----3--------------|
|-0---------------------------------------0----------------3-------------------------------|
|------------------------------------------------------------------------------------------|
Tu voulais du médiocre …

|--------------------------------0-LR---|
|---------0-----0---------------1-------|
|-----0-----0----------1-------2--------|
|---0---0-----0------2---2----2---------|
|------------------2---------0----------|
|-3-------------------------------------|

|--------------------------1-----1--0-LR--------------------------------------------1---0-|
|---------1------------1-----1--------------------1----------------1------------1---------|
|-----2-----2---2----2---2-----2--------------2-----2---2------0-----0---0----2---2-------|
|---2---2-----2----3------------------------2---2-----2------2---2-----2----3-------------|
|-0---------------------------------------0----------------3------------------------------|
|-----------------------------------------------------------------------------------------|
Tu voulais des rivières …

|------------------------------------------------------------------------|
|---------0------0---------0-LR---------1------------1-------------------|
|-----0-----0----------1------------2-----2---2----2---2-LR------0--LR---|
|---0---0-----0------2---2--------2---2-----2----3-------------0---------|
|------------------2------------0----------------------------------------|
|-3----------------------------------------------------------3-----------|
… Et des plaines de pluies pour unique empire…

|--------------------------1-----1--0-LR--------------------------------------------1---0--|
|---------1------------1-----1--------------------1----------------1------------1----------|
|-----2-----2---2----2---2-----2--------------2-----2---2------0-----0---0----2---2--------|
|---2---2-----2----3------------------------2---2-----2------2---2-----2----3--------------|
|-0---------------------------------------0----------------3-------------------------------|
|------------------------------------------------------------------------------------------|
Quand je serais parti …

|--------------------------------------------------------------------------------------------|
|---------0------0-0----------------1------------1------------------------1------------1---0-|
|-----0-----0----------1--------2-----2---2----2---2-LR------0LR------0-----0---0----2---2---|
|---0---0-----0------2---2----2---2-----2----3-------------0--------2---2-----2----3---------|
|------------------2--------0-------------------------------------3------------------------2-|
|-3------------------------------------------------------3-----------------------------------|
Qu’au lit … est la mère, des …

|-----------------0-LR--------1-----1--0-LR--------------------------------------------1---0-|
|---------1---3-----------1-----1--------------------1----------------1------------1---------|
|-----2-----------------2---2-----2--------------2-----2---2------0-----0---0----2---2-------|
|---2---2---2---2-----3------------------------2---2-----2------2---2-----2----3-------------|
|-0------------------------------------------0----------------3------------------------------|
|--------------------------------------------------------------------------------------------|
Que les femmes me pardonnent …

|--------------------------------0-LR---|
|---------0-----0---------------1-------|
|-----0-----0----------1-------2--------|
|---0---0-----0------2---2----2---------|
|------------------2---------0----------|
|-3-------------------------------------|

|-----------------0-------------------------1-----1-0-----------------------------------|
|---------1---3---------1-----1---------1-----1----------------1----------------1-------|
|-----2-------------2-----2-----2-----2---2-----2----------2-----2---2------0-----0---0-|
|---2---2---2---2-----2-----2-------3--------------------2---2-----2------2---2-----2---|
|-0----------------------------------------------------0----------------3---------------|
|---------------------------------------------------------------------------------------|
Pardonnez-moi vous tous …

|---------1-0-----------------------------------------------------|
|-----1----------------0-----0-----------0------------------1-LR--|
|---2---2----------0-----0----------1------1---1--------2---------|
|-3--------------0---0-----0------2---2------2--------2---2-------|
|-------------------------------2-------------------0-------------|
|--------------3--------------------------------------------------|
Alors que de votre âme …

|-----------------0------------------------1-----1-0---------------------------------|
|---------1---3---------1-----1--------1-----1---------------1---------------1-------|
|-----2-------------2-----2-----2----2---2-----2---------2-----2---0-----0-----0---0-|
|---2---2---2---2-----2-----2------3-------------------2---2-----------2---2-----2---|
|-0--------------------------------------------------------------2---3---------------|
|------------------------------------------------------------------------------------|
En Amour que l’on soit…

|---------1-----1--------------------------------------------------0---|
|-----1-----1--------------0-----0----------0---------------------1----|
|---2---2-----2--------0-----0----------1-----1---1------2-------2-----|
|-3------------------0---0-----0------2---2-----2------2---2----2------|
|-----------------------------------2----------------0---------0-------|
|------------------3------------------------------------------0--------|
A deux pas du grand saut …
|-------------------------------0--|
|---------1--------------------0---|
|-----2-----2---2------0------1----|
|---2---2-----2------0---0---2-----|
|-0-------------------------2------|
|------------------3---------------|
A deux pas du tombeau…


pascal17

Petit causeur
Jeune tabber
Petit Downloader
11 photos
Membre VIP
50 messages
Modérateur
#
Merci Jeanaurélien,
bonjour et bienvenue!

Sacré Jeguil!
Il râlait deja plus vite que son ombre!
mais il est pas bien méchant,
et puis il est bassiste... ce qui n'est deja pas facile icon_cheesygrin

Bon, par contre,
la question date un peu de 2009,
donc il est pas impossible que le questeur de depart ait trouvé sa réponse entre temps!

Mais ca servira peut être à quelqu'un d'autre.
merci à toi en tout cas.

De tous ceux qui n'ont rien à dire,
les plus agréables sont ceux qui se taisent
- Coluche -
jeguil

Artiste participatif
9 photos
132 messages
#
pascal17
pascal17 a écrit :
la question date un peu de 2009,
donc il est pas impossible que le questeur de depart ait trouvé sa réponse entre temps!

J'espère qu'il s'est enfin creusé les méninges ! sad

-Mieux vaut être bourré plutôt que con, ça dure moins longtemps...
-Aujourd'hui est le premier jour du reste de votre vie...
http://www.ptitelandaise.blogspot.com/
http://www.sakyamusic.net

nouveau message Répondre Recherche


plan Plan du Forum Tablatures||Tags : les, trouver, saez, laisse, arpeges, ceux, titre, dun, toutes