Intérogation Zazie - Homme sweet Homme


nouveau message Répondre
Recherche

#
Salut à tous ...

Alors je me suis lancé dans cette superbe chanson tout vas bien jusqu'à la fin du couplet j'ai l'impression qu'elle ne sonne pas de la même manière que l'originale comme si il me manquait quelque chose ... Voici ce que je jouait au départ:

|----------------------|------------------------|-----------------------
|----1---3---0---------|3----4---0---1---1------|-0-1-3--4--4-----------
|--0---0---0---0---0---|--0----0-------0---0----|-----------------------
|----------------------|------------------------|-----------------------
|3---------------2-----|------------------------|-----------------------
|----------------------|------------------------|-------------3---------


Alors j'ai trouver ceci sur le net ...
C C7 Baug C
|---------------------|-----------------------|-----------------------
|----1---3---0--------|3----4---0---1---1-----|-0-1-3--4--4-0---------
|--0---0---0---0---0--|--0----0---0---0---0---|-----------------------
|---------------------|-----------------------|-----------------------
|3---------------2----|-----------------------|-----------------------
|---------------------|-----------------------|-----0-------3---------


Mais revoici que je me réinterroge doit on jouer la deuxième et la 6eme corde en même temps dans la dernière partie ?! Je n'arrive pas à un résultat même ressemblant à l'original.

Merci pour votre aide.

c0x'




nouveau message Répondre Recherche


plan Plan du Forum Tablatures||Tags : ---, ----, alors, ---------------, -------, homme, comme, maniere, originale