solo de crazy train


nouveau message Répondre
Recherche

#
smiley-guitar Hello les rockeurs smiley-guitar

Je cherche la tablature du solo de crazy train le plus simple possible,mais je ne le trouve pas.

Ou peut on le trouver?

clef-treble Merci d'avance pour vos réponses. brkend



marshall63

5 photos
#
Crazy train d'ozzy ?
hum j'crois bien que j'ai ça...

Crazy train
Ozzy Osbourne
Solo


---------------------------------
14p-7-10p-7h-10-14p-7-14p-10p-7h-
---------------------------------
---------------------------------
---------------------------------
---------------------------------

--------------------------------------------
10-14p-7-14p-10p-7h-10-L-14p-10h-14p-10p-7h-
--------------------------------------------
--------------------------------------------
--------------------------------------------
--------------------------------------------


-------------------------------
15p-7-15p-7h-10-7h-10-15p--10p-
-------------------------------
-------------------------------
-------------------------------
-------------------------------

-----------------------------------------|
7h-10-15p-7-15p-7h-10p-7h-10-15p-10------|
------------------------------------11b--|
-----------------------------------------|
-----------------------------------------|
-----------------------------------------|


-----------------------------------
-----------------------------------
14pb--------------11pb-14pb-11pb-14
-----------------------------------
-----------------------------------
-----------------------------------

--------------------------------------
--------------------------------------
pb-11pb-14pb-11-14-11-14-11b--12pb-11p
--------------------------------------
--------------------------------------
--------------------------------------


----------------------------|
---------10-----------------|
--9b--L------9b~--L---------|
-------------------------x--|
-------------------------x--|
-------------------------x--|

--xg17----16----14----------------|
----------------------17b~--------|
----------------------------------|
----------------------------------|
----------------------------------|
----------------------------------|



--14----16----17----17b~--------|
--------------------------------|
--------------------------------|
--------------------------------|
--------------------------------|
--------------------------------|



14-17p-14---14-------------------------------------|
---------17----17p-15p-14-15p-14----14-------------|
---------------------------------16----16p-14-16b--|
---------------------------------------------------|
---------------------------------------------------|
---------------------------------------------------|



---------------------------------------|
-----17--17--L------------------14h-17-|
--L-------------14-14~---14g16---------|
---------------------------------------|
---------------------------------------|
---------------------------------------|



14h-17p-14h-17p-14h-17p-14h-17p-14h-
------------------------------------
------------------------------------
------------------------------------
------------------------------------
------------------------------------

17p-14h-18p-15h-18-15h-18p-16h-20p-17h-|
---------------------------------------|
---------------------------------------|
---------------------------------------|
---------------------------------------|
---------------------------------------|



21p-17h-21p-17h-21p-17h-21p-17h-
--------------------------------
--------------------------------
--------------------------------
--------------------------------
--------------------------------

21p-17h-21p-17h-21p-17-19p-17p-16p-14-16h-|
------------------------------------------|
------------------------------------------|
------------------------------------------|
------------------------------------------|
------------------------------------------|



--19-16-19-16-19-16-19-16-19-16-19-16-14g15--14-------|
-------------------------------------------------17b--|
------------------------------------------------------|
------------------------------------------------------|
------------------------------------------------------|
------------------------------------------------------|



--------17-----------------------|
--L--L------17b~--L--15--14------|
-----------------------------16--|
---------------------------------|
---------------------------------|
---------------------------------|



---------------------------
---------------------------
14-----------14------------
---16p-14h-16----16p-14h-16
---------------------------
---------------------------

------------------------------|
------------------------------|
14-------------14-------------|
-----16p-14h-16----16p-14h-16-|
------------------------------|
------------------------------|


------------------------------------------------|
---------------------------------------------x--|
--13-14-13-14-13-14-13-13S-14------16b~------x--|
------------------------------(16)-----------x--|
------------------------------------------------|
------------------------------------------------|


|--------------------------------------
|--------------------------------------
|--------------------------------------
|----------------------------11h-12h-14
|-----------------12h-14h-16-----------
|--11S-12h-14h-16----------------------


------------------------------14----17-19b|
-----------------------14h-17----19-------|
------------13h-14h-16--------------------|
-13h-14h-15-------------------------------|
------------------------------------------|
------------------------------------------|







J'comprend pas certaine partie ne s'affiche pas correctement

Edit: bon apparement c'est bon j'ai du couper des mesure en plein milieu


nouveau message Répondre Recherche



Autre liens sur le site pour Ozzy Osbourne : Discographie Ozzy Osbourne - Tee Shirt Ozzy Osbourne - Poster Ozzy Osbourne
plan Plan du Forum Tablatures||Tags : train, crazy, solo, cherche, rockeurs, les, OSBOURNE, OZZY, tablature