Petit doigtsur les power chords


nouveau message Répondre
Recherche

#
Bonjour je suis nouveau sur ce forum et débutant a la guitare.

Mon problème : sur des power chords du style
E -x--------------
B -x--------------
G -x--------------
D ---------5------
A ----------------
E -7--------------


sur plusieurs vidéo(Tom delonge solo dans first date ) les guitariste joue avec l'index et l'auriculaire.
J'ai essaye et je ne parviens pas a place mon auriculaire celui-ci ce tord se mets su le cote et je n'arrive pas a étouffe les cordes
Je voudrais que vous m'expliquiez la technique et les exercices favorisant le "domptage" du petit doigt. Et quelques exercices pour les écartements de doigts.

Merci pour vos futur réponses



#
Voila l'enchainement que je ne parviens pas à faire :

http://www.youtube.com/watch?v=in2ZNp8lZTI~~translated=1 a 1min54

marshall63

5 photos
#
Tu peut le jouer avec l'index et soit l'annulaire soit l'auriculaire
les premier temps avec l'annulaire et lorsque ton petit doigt auras pris l'habitude
de faire des mouvement en ce sens faire les powerchords avec l'auriculaire....

Piste 1
E E E E E E E E E E E E E E E E E E E E E
E||-----------------------|-----------------------|---------------------------|
B||-----------------------|-----------------------|---------------------------|
G||--5--5--5--5--5--5--5--|--9--9--9--9--5--5--5--|--10--10--10--10--5--5--5--|
D||--5--5--5--5--5--5--5--|--9--9--9--9--5--5--5--|--10--10--10--10--5--5--5--|
A||--3--3--3--3--3--3--3--|--7--7--7--7--3--3--3--|---8---8---8---8--3--3--3--|
E||-----------------------|-----------------------|---------------------------|


E E E E E E E
-----------------------||
-----------------------||
--7--7--7--7--7--7--7--||
--7--7--7--7--7--7--7--||
--5--5--5--5--5--5--5--||
-----------------------||




Duration Legend
---------------
W - whole
H - half
Q - quarter
E - 8th
S - 16th
T - 32nd
X - 64th
. - note dotted
|-n-| - n-tuplets


jeguil

Artiste motivé
9 photos
157 messages
#
Les powers-chords tu les fais comme ça et ça passe tout seul (ex : Do)! chanteur


Ce n'est pas en sciant que Léonard devint scie...
http://ptitelandaise.blogspot.com/
#
ok merci. wink


nouveau message Répondre Recherche


plan Plan du Forum Débutants||Tags : les, exercices, petit, chords, power, auriculaire, tom, delonge, first