Cherche tab de "la casa"


nouveau message Répondre
Recherche

#
Salut à tous,

Voilà je cherche les tablatures de "los angeles" et de "la lune" de la casa.
Si quelqu'un peut m'aider ca serait sympa.

Merci d'avance A+ smiley-guitar



#
up svp

#
La seule tablature que j'ai réussi à trouver de ce groupe c'est "go go go".
Pas moyen de trouver les autres sad sad sad

#
up svp

rankxerox

Hyper Tabber
Petit Downloader
1 message
#
salut

Voilà quelques pistes sur différents titres :

Novembre
F#m G#m A#m
C#m G# Bbm Fm


Go Go Go
Am Em Dm
C Em Am

No Style
Am F(033210) Dm Em

Les Trucs Abimés
Am Em Dm Am
C E Dm Am
C Am C Am Bb Dm Bb Dm


La Ruta
Dm (557765) C (335553) Am
Dm (557765) Bb (113331) C (335553)

(Arpège main droite)


|--------------------------------|
|--------6---------------6-------|
|----7-------7-------7-------7---|
|----------------7---------------|
|5-------------------------------|
|--------------------------------|



La Lune
G B C G
B C B C
Em G Em G C Am Em


Mon Frère
Am G E

Triste Comme un Violoncelle
Capo III
Am F7 Am F7 E
F Am F Am Dm E

Los Angeles
Cm Ab G


|--------------------------------|--------------------------------|
|1---------------3-------4-------|----------------3-------4-------|
|--------------------------------|2-------(0)---------------------|
|--------------------------------|--------------------------------|
|--------------------------------|--------------------------------|
|--------------------------------|--------------------------------|



Cerveza's Song
C# Abm Bbm Fm


... à rectifier surement chanteur

@+

RX
#
Salut,

Merci beaucoup je vais voir çà.

Un grand merci.


nouveau message Répondre Recherche


plan Plan du Forum Tablatures||Tags : casa, cherche, tablatures, los, les, voila, tab, angeles, lune