aidez moi a trouver les notes manquantes


nouveau message Répondre
Recherche

#
c une musique qui reveille ma nostalgie mais dont je connais ni le nom ni son auteur mais je connais juste les notes. faite la avec votre guitare et dite moi, si vous connaissez son nom et se qui est manquant, corrigez la si vous voulez. voici la tablature:

e|-7-----7-----5-----3-----3-----2-----0-----0-----2-----7-----12-----12-----12-----
B|---0-----0-----0-----0-----0-----0-----0-----0-----0-----0------?------?------?---
G|-----0-----0-----0-----0-----0-----0-----0-----0-----0-----0------?------?------?-
D|----------------------------------------------------------------------------------
A|----------------------------------------------------------------------------------
E|----------------------------------------------------------------------------------


e|-10-----8-----8-----7-----5-----5-----7-----8-----7-----8-----7-----11-----8-----7-
B|----?-----?-----?-----?-----?-----?-----?-----?-----?-----?-----?------?-----?-----
G|------?-----?-----?-----?-----?-----?-----?-----?-----?-----?-----?------?-----?---
D|-----------------------------------------------------------------------------------
A|-----------------------------------------------------------------------------------
E|-----------------------------------------------------------------------------------


e|-7-----7-----5-----3-----3-----2-----0-----2-----2-----3-----2-----0-----0-----0---
B|---0-----0-----0-----0-----0-----0-----0-----0-----0-----0-----0-------0---0---0---
G|-----0-----0-----0-----0-----0-----0-----0-----2-----2-----2-----2---2-------2-1---
D|-----------------------------------------------------------------------------------
A|-----------------------------------------------------------------------------------
E|-----------------------------------------------------------------------------------


voila! vraiment merveilleuse, a vous de corriger et de combler les lacumes.merci.
la derniere partile et le ptit accord (20002[100]) c ma retouche perso :p



funkpunk

Tabber motivé
Bon Downloader
#
Fais une recherche, le morceau s'appelle "Jeux interdits". Tu trouveras la tab n'importe où.

jeguil

Artiste participatif
9 photos
145 messages
#
Moi je suis plus sympa que notre modo adoré, je te mets le lien !!! icon_cheesygrin icon_cheesygrin icon_cheesygrin
http://www.partoch.com/artistes/tablature,YEPES+NARCISO,JEUX+INTERDITS,2801379.h...

Ce n'est pas en sciant que Léonard devint scie...
http://ptitelandaise.blogspot.com/
geostras

1 photo
#
Ah Jeux Interdits, passage obligé de tout nouvel arrivant dans le monde de la guitare smile

jeguil

Artiste participatif
9 photos
145 messages
#
Ouais tu l'as dit, c'est le premier morceau que j'ai étudié, il y a ...longtemps ! icon_cheesygrin

Ce n'est pas en sciant que Léonard devint scie...
http://ptitelandaise.blogspot.com/

nouveau message Répondre Recherche


plan Plan du Forum Tablatures||Tags : -----, les, ---, -------, nom, connais, notes, moi, faite