Je chercher la tablature de "Archimède - Dussè-je". =)


nouveau message Répondre
Page 1 de 2
Recherche

#
Yop!

Je sais pas si vous connaissez Archimède? Leur musique passe en radio depuis peu -> L'été revient. En plus ils sont originaires de Laval, ma ville! =D
Enfin bref y'a une chanson de leur album que j'aime tout particulièrement, elle s'appelle "Dussè-je", vous pouvez l'écouter sur Deezer. J'aimerais vraiment connaître les accords à jouer! Donc si vous pouvez me les donner, ça serait vraiment cool! wink

Merci.



rankxerox

Hyper Tabber
Petit Downloader
1 message
#
Salut

je t'envoie en MP une première tab

@+

RX
#
MERCI! bravo
J'avoue que je n'espérais plus.^^

#
hello!
je suis également intéressé par cette tablature d'Archimède (j'adore ce groupe!).
C'est possible que tu me l'envoie? Et si t'en a d'autre de ce groupe je suis preneur! wobble
Merci !

rankxerox

Hyper Tabber
Petit Downloader
1 message
#
Salut

C'est fait chanteur

RX
#
Moi aussi j'aimerai bien la tab sil te plait icon_cheesygrin Tu peux me l'envoyer en message merci d'avance

rankxerox

Hyper Tabber
Petit Downloader
1 message
#
salut

C'est fait bump

RX
#
Merci beaucoup pour la tab si ta besoin d'une recherche ou un coup de main demande ^^

#
Salut les ars!
Moi aussi je suis fan d'archimede donc j'aimerai avoir les tabs (n'importe quelle chanson)
Merci d'avance

rankxerox

Hyper Tabber
Petit Downloader
1 message
#
Dussé-je - Archimède


TablEdited by RankXerox


|--------0---------------0-------|----------------0---------------|
|--------2---------------2-------|----------------2---------------|
|--------2---------------2-------|----------------2---------------|
|--------2---------------2-------|--------------------------------|
|0-------------------------------|--------------------------------|
|----------------4---------------|3---------------2---------------|


|--------0---------------0-------|--------------------------------|
|--------3---------------2-------|--------------------------------|
|--------2---------------2-------|--------------------------------|
|0-----------------------2-------|--------------------------------|
|--------------------------------|--------------------------------|
|----------------4---------------|--------------------------------|


|--------0---------------0-------|--------0---------------0-------|
|--------2---------------2-------|--------2---------------2-------|
|--------2---------------2-------|--------2---------------2-------|
|--------2-----------------------|--------2---------------2-------|
|0-------------------------------|----------------0---------------|
|----------------2---------------|4-------------------------------|


|--------2---------------2-------|
|--------3---------------3-------|
|--------4---------------2-------|
|--------4-------0---------------|
|2-------------------------------|
|--------------------------------|



RX2009


Ca va plus vite comme ca

@+ smiley-guitar

RX
kko

#
salut
je pourrais avoir "l'été revient" de archimède
merci

#
Salut :)
J'aimerais "Eva et les autres" s'il vous plait!
Mercie A+ ;D

rankxerox

Hyper Tabber
Petit Downloader
1 message
#
Ca y est l'été est là chanteur

Archimède - L'été revient

D Em G D
D Em G D

D Em
G D
D Em
G
D

Em G Em
Em G A7 A

chorus :
D Em G
Em
G A D Em
G
Em
G
A D



D Em
G D
D Em
G
S
Em G Em
Em G A7 A

chorus : (x 2)

D Em G
Em
G A D Em
G
Em
G
A D


C C/B(020010) B A C C/B B A

D Em G D
D Em G D


D Em G
Em
G A D Em
G
Em


A Em


A Em


A D


à recaler avec les paroles

@+

RX
#
moi STP

david270281

Petit causeur
Jeune tabber
76 messages
#
Excellent groupe! icon_cheesygrin



nouveau message Répondre
Page 1 de 2
Recherche


plan Plan du Forum Tablatures||Tags : pouvez, les, vraiment, leur, archimede, dusse-je, ete, peu, laval