caravan palace => lazy place


nouveau message Répondre
Recherche

#
bonjours a vous.
je suis débutant a la guitare, et c'est pour cette raison que j'ai besoin de votre aide..
j'aimerais apprendre le riff de guitare de la chanson "lazy place" de Caravan palace. (riff commençant a la 30ème seconde.)
voici la chanson en question: http://www.youtube.com/watch?v=PLdsw7gKhtY~~hl=fr

si vous pouviez me fournir la tablature, je vous en serrais très reconnaissant!!!
merci a vous et à bientôt!!!



#
voici ce que j'ai trouvé à l'oreille, ça doit être plus ou moins ça :

e----7---7---/7-7-------|-10--10------------10-------
b------8---8------10-7-|----12--12--12-13---13-12--
g--------------------------|------------------------
d--------------------------|------------------------
a--------------------------|------------------------
e--------------------------|------------------------

et pour les accords : Em / B7 à faire avec un barré en 7

#
ça à l'air de coller..

merci bien de ton aide! =)

#
je veins d'essayer, ça sonne bien en effet, mais je changerais un peu quelque truc..



e----7---7---------7-7--------7------|
b------8---8--8-8------10-7-----10-7-|
g------------------------------------|
d------------------------------------|
a------------------------------------|
e------------------------------------|

e-10---10----------10-10---------10-------|
b----12--12--12-12-------13-10------13-10-|
g-----------------------------------------|
d-----------------------------------------|
a-----------------------------------------|
e-----------------------------------------|



nouveau message Répondre Recherche


plan Plan du Forum Tablatures||Tags : chanson, guitare, caravan, riff, place, lazy, palace, apprendre, aimerais