Je voudrais mettre mon groupe solo


nouveau message Répondre
Recherche

#
bonjour ou bonsoir, je voudrais mettre mon groupe solo :

par exemple mettre une tablature comme celle-ci :


E||--12----14----15----14----12----12b----|
B||---------------------------------------|
G||---------------------------------------|
D||---------------------------------------|
A||---------------------------------------|
E||---------------------------------------|


Tremolo Pickin
|--------3--------| |--3--| |--3--| |--3--| |--3--| |--3--| |--3--| |--3--|
S S S S S S S S S S S S S S S S S S S S S S S S H
---L--------------L--L-14-14-14-14-14-14-14-14-14-14-14-14-14-14-14-14-14-14-14-14-14-14~--------|
-------------------------------------------------------------------------------------------------|
-------------------------------------------------------------------------------------------------|
-------------------------------------------------------------------------------------------------|
-------------------------------------------------------------------------------------------------|
-------------------------------------------------------------------------------------------------|


T T T T T T T T T T T T T T T T T T T T T T T T T T T T T T T T T T T T T T T
--17-16-15-16-15-14-15-14-13-14-13-12-13-12-11-12-11-10-11-10-9-10-9-8-9-8-7-8-7-6-7-6-5-6-5-4-5-4-3
----------------------------------------------------------------------------------------------------
----------------------------------------------------------------------------------------------------
----------------------------------------------------------------------------------------------------
----------------------------------------------------------------------------------------------------
----------------------------------------------------------------------------------------------------


T T T T T T T T T T T T T T T T T T T T T T T T T T T T T T T T T T T T T T T
----------------------------------------------------------------------------------------------------
--17-16-15-16-15-14-15-14-13-14-13-12-13-12-11-12-11-10-11-10-9-10-9-8-9-8-7-6-7-6-5-6-5-4-5-4-3-4-3
----------------------------------------------------------------------------------------------------
----------------------------------------------------------------------------------------------------
----------------------------------------------------------------------------------------------------
----------------------------------------------------------------------------------------------------


S S S S S S S S S S S S S S S S S S S S S S S S
--------------------------------------------------------------------------|
--------------------------------------------------------------------------|
--------------------------------------------------------------------------|
--17-17-17-17-17-17-17-17-17-19-19-17-17-18-18-17-17-19-19-17-17-18-18-15-|
--------------------------------------------------------------------------|
--------------------------------------------------------------------------|


S S S S S S S S S S S S S S S S S S S S S S S S
--------------------------------------------------------------------------|
--------------------------------------------------------------------------|
--------------------------------------------------------------------------|
--15-15-15-15-15-15-15-15-17-17-15-15-16-16-15-15-17-17-15-15-16-16-13-13-|
--------------------------------------------------------------------------|
--------------------------------------------------------------------------|


S S S S S S S S S S S S S S S S S S S S S E.
-----------------------------------------------------------------------|
-----------------------------------------------------------------------|
-----------------------------------------------------------------------|
--13-13-13-13-13-13-13-15-15-13-13-14-14-13-13-15-15-13-13-14-14-14---|
-----------------------------------------------------------------------|
-----------------------------------------------------------------------|


E. W Q S
------------------------------||
------------------------------||
------------------------------||
--L---------------------------||
------------------------------||
------------------------------||

c'est moi qui la crée.

merci d'avance



chipie.foxtrot

Modérateur
#
ça veut dire quoi exactement :
Je voudrais mettre mon groupe solo ?

je joue de la guitare à six chtroumphs
#
chipie.foxtrot
chipie.foxtrot a écrit :
ça veut dire quoi exactement :
Je voudrais mettre mon groupe solo ?
Ah je suis pas le seul a pas avoir compris ça me rassure icon_cheesygrin

chipie.foxtrot

Modérateur
#
icon_cheesygrin j'ai surtout compris autre chose ,que la morale
réprouve icon_cheesygrin

je joue de la guitare à six chtroumphs
#
mettre mon groupe solo dans les artistes pour mettre une tablature

rafiki64

Tabber motivé
#
Hé ben quand tu déposes la tab' et qu'ils te proposent une liste d'artiste tu créé le nom de ton groupe.


nouveau message Répondre Recherche


plan Plan du Forum Tablatures||Tags : ----, mettre, voudrais, groupe, solo, celle-ci, comme, exemple, tablature