tab Seven Nation Army


nouveau message Répondre
Page 1 de 2
Recherche

#
salut je voudrais savoir ou trouver une bonne tab de Seven Nation Army complete



#
Ok rien de plus simple tu va sur ce site: http://www.magic-tab.com/a/a/tabs.php3?task=2
Ensuite, tu va dans genre Rock, puis tu cherche dans la liste et là tu trouve. Voilà.

(site super bien fait et tout, classe.) wink

#
Oui mais pour voir la suite il faut payer

#
Il n'y a que la tablature pour la basse là.
Moi je fais:
mi: -7---7-10-7-5-2--1-

Puis pour le refrain:
mi: -3-3-3-3-3-3-3-5-5-5-5-5-5-5-------------------------------------------------3-3-3-3-3-3-3-5-5-5-5-5-5
la: ----------------------------------------7--7-10-7-5-2-1--7--7-10-7-5-2-1-2-1-----------------------------

Il faut faire deux fois le milieu du refrain sur la corde la.

#
ok merci

#
rrytt
rrytt a écrit :
Oui mais pour voir la suite il faut payer



Oui seul hic... smyleybleu

#
De rien!
J'ai modifié un petit peu,j'avais fait une petite erreur à un moment.

#
Perso j ai trouver la tab véritable http://www.guitaretab.com/t/the-white-stripes/25051.html

Joue avec la music derrière et tu verra que c est la vrai

#
Moi je fait:
Intro:

E-------------------------------------------------------
B-------------------------------------------------------
G------------------------------------------------------- X 8
D-------------------------------------------------------
A-------------------------------------------------------
E-5-57-5-3-1-0---5-57-5-3-1-0----------------

Refrain:

E-----------------------------------------------------------------------------------------------
B-----------------------------------------------------------------------------------------------
G-----------------------------------------------------------------------------------------------
D-----------------------------------------------------------------------------------------------
A-7-7-7-7-7-7-7-7-9-9-9-9-9-9-9-9--9-12-9-7-5-4--9-9-12-9-7-5-7-5-4----
E-5-5-5-5-5-5-5-5-7-7-7-7-7-7-7-7--7-10-7-5-3-2--7-7-10-7-5-3-5-3-2----


E-----------------------------------------------------------------------------------------------
B-----------------------------------------------------------------------------------------------
G-----------------------------------------------------------------------------------------------
D-----------------------------------------------------------------------------------------------
A-9-9-12-9-7-5-4--9-9-12-9-7-5-7-5-4--7-7-7-7-7-7-7-7-9-9-9-9-9-9-9-9--
E-7-7-10-7-5-3-2--7-7-10-7-5-3-5-3-2--5-5-5-5-5-5-5-5-7-7-7-7-7-7-7-7--

Apres le refrain:

E---------------------------------------------
B---------------------------------------------
G---------------------------------------------
D---------------------------------------------
A---------------------------------------------
E-5-57-5-3-1-0---5-57-5-3-1-0------

#
staelder
staelder a écrit :
Perso j ai trouver la tab véritable http://www.guitaretab.com/t/the-white-stripes/25051.html

Joue avec la music derrière et tu verra que c est la vrai

Je confirme,c'est la bonne tablature,mais il manque le solo.

#
--mich-- une question le refrai c kua desoler chu blonde lol icon_cheesygrin hum smiley-guitar smiley-guitar

#
E|--------------------------
B|--------------------------
G|-9--9--/12--9--7--5--4----
D|-9--9--/12--9--7--5--4----
A|-7--7--/10--7--5--3--2----
E|--------------------------

E|-----------------------------
B|-----------------------------
G|-9--9--/12--9--7--5-7-5-4----
D|-9--9--/12--9--7--5-7-5-4----
A|-7--7--/10--7--5--3-5-3-2----
E|-----------------------------

#
et le solo c'est quoi s'il vous plais parceque je ne le trouve pas

geostras

1 photo
#
Salut,

J'ai trouvé ça, en espérant que ça te conviendra wink

http://www.partoch.com/artistes/tablature,THE+WHITE+STRIPES,7+NATION+ARMY+INTRO+...

smiley-guitar

#
je propose une variante mais n'etant pas un pro...

mi: -7---7-10-7-5-3--2-

ca me parait pas trop mal



nouveau message Répondre
Page 1 de 2
Recherche


plan Plan du Forum Tablatures||Tags : tab, army, nation, seven, voudrais, savoir, complete, bonne, trouver